Oops, an error
Loading. Please wait.

No Te Deseo El Mal Pero Tampoco Te Deseo El Bien tab

version 3
version 3

Whole song

Interactive

by Panda
36 views 3 this week
no commentswrite comment
1 2 3 4 5
3 more votes to show rating
add to favorites
×
Save as Personal and add changes to this tab that will be seen only by you. Learn more ›
×
You can save this tab as Personal to edit and correct it or add notes. All changes will be seen only by you. Learn more »
launch autoscroll
font size
0
reset
how to read this tab
guitar tuner
edit
Autoscroll
slow
fast
+/-
esc
set tempo
stop
Author
Unregistered
ESTA ES LA ROLA MAS EXACTA
K HE SAKADO JUNTO CON LA DE PATETHIKA
AFINACION: BEMOL
INSTRUMENTOS: TRES LIRAS, TECLADO, BAJO, BATERIA
AKI VA EL PRINCIPIO
ESTO ES TECLADO PERO SE PUEDE
TOCAR CON DOS LIRAS

ESTOS SON LOS ACORDES
KE HACE EL TECLADO:
Am - Gm - D - B - F# 
DESPUES LAS GUITARRAS ENTRAN CON ESTO:
GUITARRA 1:
R#|--------------------------------------------------------|
A#|--------------------------------------------------------|
F#|---------------------------------------------------14-17|
C#|-14-12-14-15-14-12-14-12-14-15-14-12-17----14---17------|
G#|----------------------------------------15--------------|
R#|--------------------------------------------------------|X2


GUITARRA 2:


R#|-------------------------------------|
A#|-------------------------------------|
F#|---555555----------777777--555-------|
C#|---555555--555555--777777--555--555--|
G#|---333333--555555--555555--333--555--|
R#|-----------333333---------------333--| X2
LA LIRA EXTRA, PORKE HAY UNA
EN LA ROLA ORIGINAL
SE OCUPA EN INTRO Y SOLO
HACE ESTO
R#|----------------------------------------------------|
A#|----------------------------------------------------|
F#|----------------------------------------------------|
C#|-10-9-10-12-10-9-10-9-10-12-10-12-14-------14-15-12-|
G#|-------------------------------------12-15----------|
R#|----------------------------------------------------|X2
DEPSUES DE HACERLO

SE HACEN ESTAS DOS COSAS
AL MISMO TIEMPO EN
?POBRE COMPAÑERO??
GUITARRA 1:

R#|------------------------10-10-10-X-10---888888---33333-|
A#|------------------------10-10-10-X-10---888888---33333-|
F#|---55555555--------------------------------------------|
C#|---55555555--55555555----------------------------------|
G#|---33333333--55555555----------------------------------|
R#|-------------33333355----------------------------------|X2

GUITARRA 2:
R#|-----------------------------------------------------|
A#|-----------------------------------------------------|
F#|---55555555---------------77777777---555-------------|
C#|---55555555---55555555----77777777---555---555-------|
G#|---33333333---55555555----55555555---333---555-------|
R#|--------------33333333---------------------333-------| X2
Y YA DEPSUES EN DONDE DICE
?NO TE KIERO ALARMAR, NO ME TOMES ESTO A MAL?
VA ESTO CON LAS LIRAS AL MISMO TIEMPO:
SE MEZCLAN ACORDES Y REKINTOS:
GUITARRA 1:
R#|-----------------------------------7-7-7-X-7-8-7-7-5-5-7-|
A#|--10-10-10-X-10-12-10-10-8-10-10---8-8-8-X-8-8-8-8-6-6-8-|
F#|--10-10-10-X-10-12-10-10-9-10-10-------------------------|
C#|---------------------------------------------------------|
G#|---------------------------------------------------------|
R#|---------------------------------------------------------|X2

GUITARRA 2
R#|---------------------------------------------------------|
A#|---------------------------------------------------------|
F#|--7--7--7-7-7--7--7--7--7--7--7--------------------------|
C#|--7--7--7-7-7--7--7--7--7--7--7----5-5-5-5-5-5-5-5-5-5-5-|
G#|--5--5--5-5-5--5--5--5--5--5--5----5-5-5-5-5-5-5-5-5-5-5-|
R#|-----------------------------------3-3-3-3-3-3-3-3-3-3-3-|X2


Y ESTOS VAN CON ESTE VERSO:
?MI PACIENCIA SE ACABO, TU PENSION TA CADUCO??
GUITARRA 1:
R#|------------------------------------------------|
A#|-------12/5--10--12--12/13-12-10---12/15--10-12-|
F#|------------------------------------------------|
C#|-10-------------------------------------10------|
G#|------------------------------------------------|
R#|------------------------------------------------|


GUITARRA 2
R#|---------------------------------------------------------|
A#|---------------------------------------------------------|
F#|--7--7--7-7-7--7--7--7--7--7--7--------------------------|
C#|--7--7--7-7-7--7--7--7--7--7--7----5-5-5-5-5-5-5-5-5-5-5-|
G#|--5--5--5-5-5--5--5--5--5--5--5----5-5-5-5-5-5-5-5-5-5-5-|
R#|-----------------------------------3-3-3-3-3-3-3-3-3-3-3-|X2


Y DESPUES ESTO EN:
?HASTA HORA NO HE DUDADO DE MIS???
LAS DOS GUITARRAS
R#|-------------------------------------------------|
A#|-------------------------------------------------|
F#|--------------------------77777777---5555--------|
C#|----77777777---55555555---77777777---5555---5555-|
G#|----77777777---55555555---55555555---3333---5555-|
R#|----55555555---33333333---------------------3333-|X2

Y OTRAS VEZ EN:?POBRE COMPAÑERO?.?
LAS DOS GUITARRAS HACEN ESTO:
NOTA IMPORTANTE: LA GUITARRA 1 YA NO HACE
EL REKINTO DE LA PRIMERA PARTE:
R#|-------------------------------------------------|
A#|-------------------------------------------------|
F#|---55555555---------------77777777---555---------|
C#|---55555555---55555555----77777777---555---5555--|
G#|---33333333---55555555----55555555---333---5555--|
R#|--------------33333333---------------------3333--| X2

Y EN EL VERSO KE TERMINA EN

EL PIANO O LA LIRA EXTRA HACE ESTO:
           ?TU JARDIN NO CRECERAAAAAA?
R#|--9------9/16/21----------------------|
A#|--8-----------------------------------|
F#|--X-----------------------------------|
C#|--6-----------------------------------|
G#|---------------------------4/11/13----|
R#|--------------------------------------|

Y DESPUES LA GUIITARRA 2 HACE ESTO (PRE-SOLO): (PALM MUTE=P.M.)
P.M???????       ???
R#|------------------------------|
A#|------------------------------|
F#|------------------------------|
C#|------------7-7----------7----|
G#|-777777777--7-7--777777--7----|
R#|-555555555--5-5--555555--5----|X2


SEGUIDO DE ESTO
P.M??????????        ????       ?????
R#|--------------------------------------------------|
A#|--------------------------------------------------|
F#|--------------------------------------------------|
C#|------------5-5---------5----------3-3------------|
G#|-5555555555-5-5--555555---------------------------|
R#|-3333333333-3-3--333333-3---111111-1-1------------|

YA DESUES ESTO CON LO DE ARRIBA
SE JUNTA Y SE TOKA CUATRO VECES
EN EL SOLO SE TOKA ESO:
SOLO:
    ESTO ES RAPIDO, NO SE ALCANZA A ESCUCHAR
R#|--------------------------|
A#|-17-15-13-----------------|
F#|----------16-14-12--------|
C#|-------------------14-----|
G#|--------------------------|
R#|--------------------------|


R#|-------------------------------------------|
A#|-------------------------------------------|
F#|-------------------------------------------|
C#|-15-14-12-14-------------------------------|
G#|-------------12-12---12-14-12-10-12-10-10--|
R#|-------------------------------------------|
AKI SE ESTIRA LA CUERDA A#:
R#|-12-12-12-12--|
A#|-15-15-15-15--|
F#|--------------|
C#|--------------|
G#|--------------|
R#|--------------|
         ESTA ESCALA DEL 15 EN R# AL 12 EN C# ES RAPIDA
R#|-12--15-13-12--------------------------------------------------|
A#|--------------15-13-12-----------------------------------------|
F#|------------------------14-----------------16-14-12-12/14------|
C#|---------------------------12-12/14-12-12-----------------12---|
G#|---------------------------------------------------------------|
R#|---------------------------------------------------------------|


R#|--------------------------|
A#|------------8-------------|
F#|---9-10-9-7---9-10-9-7----|
C#|-----------------------7--|
G#---------------------------|
R#|--------------------------|X2


R#|-------------------------------|
A#|------------8------------12-10-|
F#|---9-10-9-7----9-10-9-7--------|
C#|-------------------------------|
G#|-------------------------------|
R#|-------------------------------|


ESTO SE TRINEA, EXCPETO LAS ULTIMAS NOTAS
LA ULTIMA NOTA TERMINA CON EL PRINCIPIO
DEL TECLADO SIGUIENTE:
R#|-15------------------------------------|
A#|-17--18--17--15--17--15----------------|
F#|-----19--17--16--17--16--17--16--17----|
C#|-------------------------19--17--19----|
G#|---------------------------------------|
R#|---------------------------------------|
EN VEZ DE GUITARRA EXTRA,
EL TECLADO HACE ESTO
R#|----------------------------------------------------|
A#|----------------------------------------------------|
F#|----------------------------------------------------|
C#|-10-9-10-12-10-9-10-9-10-12-10-12-14-------14-15-12-|
G#|-------------------------------------12-15----------|
R#|----------------------------------------------------|X2


JUNTO CON LAS GUITARRAS KE HACEN ESTO
SOLO CUANDO SE ACABA EL SOLO:
GUITARRA 1:
R#|-------------------------------------------------------|
A#|-------------------------------------------------------|
F#|-5---------------7-7-7-7-7-7-7-7---5-5-5-5-------------|
C#|-5-------3-------7-7-7-7-7-7-7-7---5-5-5-5--5-5-5-5----|
G#|-3-------3-------5-5-5-5-5-5-5-5---3-3-3-3--5-5-5-5----|
R#|---------1----------------------------------3-3-3-3----|

R#|-----------------------------------|
A#|-----------------------------------|
F#|-9-9-9-9-10-10-10-10-12-12-12-12---|
C#|-X-X-X-X--X--X--X--X--X--X--X--X---|
G#|-7-7-7-7-8-8-8-8-8-8-10-10-10-10---|
R#|-----------------------------------|X 2

R#|----------------------------------------------------|
A#|----------------------------------------------------|
F#|-14-14-14-14-12-12-12-12-10-10-10-10-10-10-10-10----|
C#|--X--X--X--X--X--X--X--X--X--X--X--X--X--X--X-X-----|
G#|-12-12-12-12-10-10-10-10--8--8--8--8--8--8-8--8-----|
R#|----------------------------------------------------|
R#|----------------------------------------------------|
A#|----------------------------------------------------|
F#|-9-9-9-9-10-10-10-10-7-7-7-7-7-7-7-7----------------|
C#|-X-X-X-X--X--X--X--X-X-X-X-X-X-X-X-X----------------|
G#|-7-7-7-7--8--8--8--8-5-5-5-5-5-5-5-5----------------|
R#|----------------------------------------------------|

GUITARRA 2:
R#|-------------------------------------------------------|
A#|-------------------------------------------------------|
F#|-5---------------7-7-7-7-7-7-7-7---5-5-5-5-------------|
C#|-5-------3-------7-7-7-7-7-7-7-7---5-5-5-5--5-5-5-5----|
G#|-3-------3-------5-5-5-5-5-5-5-5---3-3-3-3--5-5-5-5----|
R#|---------1----------------------------------3-3-3-3----|

R#|---------------------------------------------|
A#|---------------------------------------------|
F#|-5555555-------------77777777---5555---------|
C#|-5555555--33333333---77777777---5555-5555----|
G#|-3333333--33333333---55555555---3333-5555----|
R#|----------11111111-------------------3333----|


R#|----------------------------------------------------|
A#|----------------------------------------------------|
F#|----------------------------------------------------|
C#|-10-9-10-12-10-9-10-9-10-12-10-12-14-------14-15-12-|
G#|-------------------------------------12-15----------|
R#|----------------------------------------------------|X2

TODO ESTO DESPUES DE K TERMINA EL SOLO
SE MEZCLA Y SE TOKA AL MISMO TIEMPO
AHÍ CHEKENLE EL TIEMPO USTEDES
Y PARA FIN DONDE DICE:
?COMO TE VAYA ME DA IGUAL?
HACEN ESTO:
GUITARRA 1:
R#|------------------------|
A#|------------------------|
F#|-9-9-9-9-7-7-9-7-5------|
C#|-X-X-X-X-X-X-X-X-X------|
G#|-7-7-7-7-5-5-7-5-3------|
R#|------------------------|

GUITARRA 2:
R#|----------------------------|
A#|----------------------------|
F#|-7-7-7-7--------------------|
C#|-5-5-5-5--5-5-5-5--7--------|
G#|-3-3-3-3--5-5-5-5--7--------|
R#|----------3-3-3-3--5--------|

PIANO:
R#|-------------------7-------------|
A#|-------------------9----9--------|
F#|-6-6-3-3-------------------------|
C#|---------------------------------|
G#|---------------------------------|
R#|---------------------------------|

USTEDES CHEKEN EL TIEMPO AHI
Y VAN COMO VAN LOS INSTURMENTOS
ESTA AL 100% CORRECTA

DUDAS A MI MAIL:
wessex_peperonni@
O MIS URLS:


            
            
Suggest correction
Creating personal tab
Creating personal tab
You can edit any tab online and save it as your Personal.

You can edit, replace or remove any tab part or add personal notes – all changes will be seen only by you.

Personal tabs can be accessed anytime from any device, even offline.
Learn more »
Give kudos to tab author, rate the tab!
1 2 3 4 5
comments
print report bad tab
guest
Wanna post a correction for this tab? Suggest correction