Oops, an error
Loading. Please wait.

Pathetica tab

version 3
version 3

Interactive

by Panda
862 views 1 this week
no commentswrite comment
1 2 3 4 5
x 3
add to favorites
×
Save as Personal and add changes to this tab that will be seen only by you. Learn more ›
×
You can save this tab as Personal to edit and correct it or add notes. All changes will be seen only by you. Learn more »
launch autoscroll
font size
0
reset
how to read this tab
guitar tuner
edit
Autoscroll
slow
fast
+/-
esc
set tempo
stop
Difficulty

PATHETICA---por panda sucks


teclado procesado con una mac solo las mac's alcanzan una alta
definicion como esa (pinches perros se estan pudriendo en dinero)
y el programa no se si sea adobe audition


aa y el pinche requintillo no lo pongo por q me cae gordo

|-----------------------------------------------------------|
|-----------------------------------------------------------|
|-----------------------------------------------------------|
|--66 66 66 66---22 22 22 22-----------------  44 44 44 44--|
|--44 44 44 44---00 00 00 00---  22 22 22 22-- 22 22 22 22--|
|------------------------------  00 00 00 00----------------|

|-----------------------------------------------------------|
|-----------------------------------------------------------|
|-----------------------------------------------------------|
|--66 66 66 66---22 22 22 22-----------------  44 44 44 44--|
|--44 44 44 44---00 00 00 00---  22 22 22 22-- 22 22 22 22--|
|------------------------------  00 00 00 00----------------|

|-----------------------------------------------------------|
|-----------------------------------------------------------|
|-----------------------------------------------------------|  
|-- ---- 66 66---------22 22---------------- -- -- 44 44----|
|--44 44 44 44---00 00 00 00 --- ----22 22-- 22 22 22 22----|
|------------------------------00 00 00 00------------------|
el numero solo va muteado


|-----------------------------------------------------------|
|-----------------------------------------------------------|
|-----------------------------------------------------------|   
|-- ---- 66 66---------22 22---------------- -- -- 44 44----|
|--44 44 44 44---00 00 00 00 --- ----22 22-- 22 22 22 22----|
|------------------------------00 00 00 00------------------|
el numero solo va muteado


primer verso

|---6---|
|---4---|


baja todo el volumen de tu segunda
guitarra y subelo poco a poco o dejala sonando

bass solo


|--------------------------------------------------------------|
|--------------------------------------------------------------|
|--------------------------------------------------------------|
|--6 -- 6 66 66 66---22 22 22 22-----------------  44 44 44 44-| 
|--4 -- 4 44 44 44---00 00 00 00---  22 22 22 22-- 22 22 22 22-|
|------------------------------  ----00 00 00 00---------------|
lo primero se toca y lo demas se mutea


|--------------------------------------------------------------|
|--------------------------------------------------------------|
|--------------------------------------------------------------|
|--66-66 66 66---22 22 22 22----------------- ---- 44 44 44 44-|
|--44-44 44 44---00 00 00 00---------22 22 22 22-- 22 22 22 22-|
|------------------------------------00 00 00 00---------------|


pre-coro

guitarra 1
|-----------------------------------------------------------|
|-----------------------------------------------------------|
|--66--88--99---1111-------------6-----9--------------------|
|--xx  xx  xx   x x    ----------x--7--x--------------------|
|--44  66  77   9 9--------------4--x--7--------------------|
|-----------------------------------5-----------------------|

guitar 2
|-----------------------------------------------------------|
|-----------------------------------------------------------|
|-----------------------------------------------------------|
|--66  44   66  11-11------------6--2-----------------------|
|--44  22   44  9--9-------------4--0--2--------------------|
|--------------------------------------0--------------------|


coro


|-----------------------------------------------------------|
|-----------------------------------------------------------|
|-----------------------------------------------------------|
|--66 66 66 66---22 22 22 22-----------------  44 44 44 44--|
|--44 44 44 44---00 00 00 00---  22 22 22 22-- 22 22 22 22--|
|------------------------------  00 00 00 00----------------|

|-----------------------------------------------------------|
|-----------------------------------------------------------|
|-----------------------------------------------------------|
|--66 66 66 66---22 22 22 22-----------------  44 44 44 44--|
|--44 44 44 44---00 00 00 00---  22 22 22 22-- 22 22 22 22--|
|------------------------------  00 00 00 00----------------|


|----------|
|----------|
|----------|
|--6--2----|
|--4--0--2-|
|--------0-|


|-----------------------------------------------------------|
|-----------------------------------------------------------|
|-----------------------------------------------------------|
|--66 66 66 66---22 22 22 22-----------------  44 44 44 44--|
|--44 44 44 44---00 00 00 00---  22 22 22 22-- 22 22 22 22--|
|------------------------------  00 00 00 00----------------|


|-----------------------------------------------------------|
|-----------------------------------------------------------|
|-----------------------------------------------------------|
|--66 66 66 66---22 22 22 22-----------------  44 44 44 44--|
|--44 44 44 44---00 00 00 00---  22 22 22 22-- 22 22 22 22--|
|------------------------------  00 00 00 00----------------|


|----------|
|----------|
|----------|
|--6--2----|
|--4--0--2-|
|--------0-|


2do verso

|---6---|
|---4---|


baja todo el volumen de tu segunda
guitarra y subelo poco a poco o dejala sonando

bass solo


|--------------------------------------------------------------|
|--------------------------------------------------------------|
|--------------------------------------------------------------|
|--6 -- 6 66 66 66---22 22 22 22-----------------  44 44 44 44-| 
|--4 -- 4 44 44 44---00 00 00 00---  22 22 22 22-- 22 22 22 22-|
|------------------------------  ----00 00 00 00---------------|
lo primero se toca y lo demas se mutea


|--------------------------------------------------------------|
|--------------------------------------------------------------|
|--------------------------------------------------------------|
|--66-66 66 66---22 22 22 22----------------- ---- 44 44 44 44-|
|--44-44 44 44---00 00 00 00---------22 22 22 22-- 22 22 22 22-|
|------------------------------------00 00 00 00---------------|


pre-coro

guitarra 1
|-----------------------------------------------------------|
|-----------------------------------------------------------|
|--66--88--99---1111-------------6-----9--------------------|
|--xx  xx  xx   x x    ----------x--7--x--------------------|
|--44  66  77   9 9--------------4--x--7--------------------|
|-----------------------------------5-----------------------|

guitar 2
|-----------------------------------------------------------|
|-----------------------------------------------------------|
|-----------------------------------------------------------|
|--66  44   66  11-11------------6--2-----------------------|
|--44  22   44  9--9-------------4--0--2--------------------|
|--------------------------------------0--------------------|

coro


|-----------------------------------------------------------|
|-----------------------------------------------------------|
|-----------------------------------------------------------|
|--66 66 66 66---22 22 22 22-----------------  44 44 44 44--|
|--44 44 44 44---00 00 00 00---  22 22 22 22-- 22 22 22 22--|
|------------------------------  00 00 00 00----------------|

|-----------------------------------------------------------|
|-----------------------------------------------------------|
|-----------------------------------------------------------|
|--66 66 66 66---22 22 22 22-----------------  44 44 44 44--|
|--44 44 44 44---00 00 00 00---  22 22 22 22-- 22 22 22 22--|
|------------------------------  00 00 00 00----------------|


|----------|
|----------|
|----------|
|--6--2----|
|--4--0--2-|
|--------0-|


|-----------------------------------------------------------|
|-----------------------------------------------------------|
|-----------------------------------------------------------|  
|-- ---- 66 66---------22 22---------------- -- -- 44 44----|
|--44 44 44 44---00 00 00 00 --- ----22 22-- 22 22 22 22----|
|------------------------------00 00 00 00------------------|


|-----------------------------------------------------------|
|-----------------------------------------------------------|
|-----------------------------------------------------------|   el numero solo va muteado
|-- ---- 66 66---------22 22---------------- -- -- 44 44----|
|--44 44 44 44---00 00 00 00 --- ----22 22-- 22 22 22 22----|
|------------------------------00 00 00 00------------------|

bridge

|----------------------|
|----------------------|
|----------------------|
|--2--4--6----2--4-----|
|--0--2--4----0--2--0-4|
|----------------------|


guitarra 1
|--------------------------------------------|
|--------------------------------------------|
|--------------------------------------------|
|--2----------4----------6---9----4----------|
|--0----------2----------4---7----2----------|
|--------------------------------------------|


guitarra 2
|---------------------------------------------------------------------|
|---------------------------------------------------------------------|
|--6--8-9-8-6-8-9-11-9-8-6-8-9-8-6-8-9------11-11-11-11-11-11-11-11---|
|--x--x-x-x-x-x-x-x--x-x-x-x-x-x-x-x-x------x--x--x--x--x--x--x--x----|
|--4--6-7-6-4-6-7-9--7-6-4-6-7-6-4-6-7------9--9--9--9--9--9--9--9----|
|---------------------------------------------------------------------|

''    tal ves    ya   te cansaste de esperar   todas las noches ''

|------------------------------------------------------------------------------|
|------------------------------------------------------------------------------|
|------------------------------------------------------------------------------|
|--66 66 66 66---22 22 22 22-----------------  44 44 44 44---------------------| muteado
|--44 44 44 44---00 00 00 00---  22 22 22 22-- 22 22 22 22---------------------|
|------------------------------  00 00 00 00-----------------------------------|

'' vestida igual a ese hombre   tan eesspeeeeciaaaaaal
|-------------------------------------------------------------|-----------------|
|-------------------------------------------------------------|-----------------|
|-------------------------------------------------------------|-----88-88-------|
|--66 66 66 66---22 22 22 22------------------ 4 44 44 -------|-----xx-xx-------| 
y lo ultimo se toka
|--44 44 44 44---00 00 00 00---  22 22 22 22-- 2 22 22 -------|-----66-66-------|
|------------------------------  00 00 00 00------------------|-----------------|


coro


|-----------------------------------------------------------|
|-----------------------------------------------------------|
|-----------------------------------------------------------|
|--66 66 66 66---22 22 22 22-----------------  44 44 44 44--|
|--44 44 44 44---00 00 00 00---  22 22 22 22-- 22 22 22 22--|
|------------------------------  00 00 00 00----------------|

|-----------------------------------------------------------|
|-----------------------------------------------------------|
|-----------------------------------------------------------|
|--66 66 66 66---22 22 22 22-----------------  44 44 44 44--|
|--44 44 44 44---00 00 00 00---  22 22 22 22-- 22 22 22 22--|
|------------------------------  00 00 00 00----------------|


|-----------------------------------------------------------|
|-----------------------------------------------------------|
|-----------------------------------------------------------|
|--66 66 66 66---22 22 22 22-----------------  44 44 44 44--|
|--44 44 44 44---00 00 00 00---  22 22 22 22-- 22 22 22 22--|
|------------------------------  00 00 00 00----------------|

|-----------------------------------------------------------|
|-----------------------------------------------------------|
|-----------------------------------------------------------|
|--66 66 66 66---22 22 22 22-----------------  44 44 44 44--|
|--44 44 44 44---00 00 00 00---  22 22 22 22-- 22 22 22 22--|
|------------------------------  00 00 00 00----------------|

|-----------------------------------------------------------|
|-----------------------------------------------------------|
|-----------------------------------------------------------|  el numero solo va muteado
|-- ---- 66 66---------22 22---------------- -- -- 44 44----|
|--44 44 44 44---00 00 00 00 --- ----22 22-- 22 22 22 22----|
|------------------------------00 00 00 00------------------|


|-----------------------------------------------------------|
|-----------------------------------------------------------|
|-----------------------------------------------------------|   el numero solo va muteado
|-- ---- 66 66---------22 22---------------- -- -- 44 44----|
|--44 44 44 44---00 00 00 00 --- ----22 22-- 22 22 22 22----|
|------------------------------00 00 00 00------------------|

|-----------------------------------------------------------|
|-----------------------------------------------------------|
|-----------------------------------------------------------| todas son para abajo
|--66 66 66 66---22 22 22 22-----------------  44 44 44 44--|
|--44 44 44 44---00 00 00 00---  22 22 22 22-- 22 22 22 22--|
|------------------------------  00 00 00 00----------------|

|-----------------------------------------------------------|
|-----------------------------------------------------------|
|-----------------------------------------------------------|
|--66 66 66 66---22 22 22 22-----------------  44 44 44 44--| todas son para abajo
|--44 44 44 44---00 00 00 00---  22 22 22 22-- 22 22 22 22--|
|------------------------------  00 00 00 00----------------|

cualkier duda escuchen la cancion la rola esta perfecta los rekintillos
no los pongo me dan mas hueva esta cancion esta en un 99.9%

dejo mi correo   punkrockpephophum@hotmail.com

aunque luego las copean los webmaster's y las pegan en sus www pero en fin mientras
 pongan mis derechos de traductor y la puedan tocar bien un saludo

            
            
Suggest correction
Creating personal tab
Creating personal tab
You can edit any tab online and save it as your Personal.

You can edit, replace or remove any tab part or add personal notes – all changes will be seen only by you.

Personal tabs can be accessed anytime from any device, even offline.
Learn more »
Give kudos to tab author, rate the tab!
1 2 3 4 5
comments
print report bad tab
guest
Wanna post a correction for this tab? Suggest correction