Oops, an error
Loading. Please wait.

Porque Todavia Podemos Decir Una Vez Mas Tab

version 1
version 1

Whole song

Interactive

41,923 views 21 this week
3 commentsread comments
1 2 3 4 5
accurate
x 9
add to favorites
launch autoscroll
font size
0
reset
how to read this tab
guitar tuner
Autoscroll
slow
fast
+/-
esc
set tempo
stop
Help us to improve Ultimate-Guitar.com Take our survey!
×
Author
Difficulty
intermediate
.= palm muting (ahogar las cuerdas)

Tuning: Standard

 Versos:
e|-------------------------------------|
B|----0-------0-------0-4-0---0-2-0----|
G|---4-4-4---4-4-4---4-------4---------|
D|--2---2---2---2---2-------2----------|
A|-----------------0-------0-----------|
E|-0-------4---------------------------|

 Pre-coro("se que cosas que aclarar...) X3
e|-----0---------0------------------------|
B|----------------------------------------|
G|---6--6-6----6--6-6---------------------|
D|--6-6--6----6-6--6----------------------|
A|-4---------0----------------------------|
E|----------------------------------------|

 ..."Sigue igual"
e|-0------------------|
B|-0------------------|
G|-2------------------| déjalas sonar.
D|-2------------------|
A|-0------------------|
E|-x------------------|

 Coro(Saca tu los tiempos y ritmo):
e|-0--0--0--0---------------------------------------------|
B|-0--0--0--0---------------------------------------------|
G|-2--1--6--4---------------------------------------------|
D|-2--2--6--4---------------------------------------------|
A|-0--2--4--2---------------------------------------------|
E|----0--x--x---------------------------------------------|

 Para acabar el primer coro en "no me dejes dudando..."
e|-------------------------------------------------------|
B|-------------------------------------------------------|
G|-22222222----------------------------------------------|
D|-22222222----------------------------------------------|
A|-00000000----------------------------------------------|
E|-........----------------------------------------------|

Después :
verso
pre-coro
coro(también en el "no me dejes dudando")

Outro:
e|----------00000000-0-------------------------|
B|----------00000000-0-------------------------|
G|-22222222-22222222-1-------------------------|
D|-22222222-22222222-2-------------------------|
A|-00000000-00000000-2-------------------------|
E|-........----------0-------------------------|


Suggest correction
What's this?
You can suggest a correction to this tab. Community and Mods will review your correction and vote to approve or reject it.
comments
print report bad tab
3 comments total.
0 reply
omertoscar 538 wrote on August 3 2006, 04:19 pm

Tambien me arrepiento de haber puesto este tab de una rola extremadamente plaguiada de los bright eyes llamada"messenger birds song" panda suxx :(

0 reply
guitarhead93 471 wrote on November 29 2006, 07:14 pm

Oye esos acordes q has usado stan mal!!! El coro deberia ser así:

e--X--X--X--X--
B--0--0--0--0--
G--4--4--4--4--
D--2--2--2--2--
A--0--4--2--0--
E--X--X--X--X--

Tócalo y vas a ver q suena mejor (casi todo este tab sta mal!!).
2 estrellas(me gusto tu opinion y el intro)

0 reply
unlikereggaeton 12 wrote on February 13 2007, 06:20 pm

el coro esta todo malogrado...

guest
You may want to rate the tab now too:
select rating
Please do not post tabs as comments. Select "correction" instead!