Oops, an error
Loading. Please wait.

So Violento So Macabro intro tab

version 1
version 1

Intro

Whole song

Interactive

by Panda
4,406 views 1 this week
2 commentsread comments
1 2 3 4 5
x 3
add to favorites
×
Save as Personal and add changes to this tab that will be seen only by you. Learn more ›
×
You can save this tab as Personal to edit and correct it or add notes. All changes will be seen only by you. Learn more »
launch autoscroll
font size
0
reset
how to read this tab
guitar tuner
edit
Autoscroll
slow
fast
+/-
esc
set tempo
stop
Author
Difficulty
Intro

Gtr 1:

eb|-------------------------------------------------------|
Bb|--------13--12------13---12------13—12--------13—12----|
Gb|-------------------------------------------------------|
Db|--10-10--10----------------10-10--10-------------------|
Ab|----------------12-12---12-------------12-12----12-----|
Eb|-------------------------------------------------------|


eb|-------------------------------------------------------|
Bb|--13-12-13-15-13---13-12-13-15-13----------------------|
Gb|-------------------------------------------------------|
Db|-------------------------------------------------------|
Ab|-------------------------------------------------------|
Eb|-------------------------------------------------------|
                                                    
                                                       (x2)
eb|------------------------------10--12---10---12--10—-8~7| 
Bb|----------------------------8----8---8----8----8—-8----|
Gb|--13-13-17-17—-13-13-17-17-----------------------------|
Db|-------------------------------------------------------|
Ab|-------------------------------------------------------|
Eb|-------------------------------------------------------|

Intro

Gtr 2:
eb|------------------------------------------------------|
Bb|------------------------------------------------------|
Gb|6666666666--999999999--6666666666--9999999999---------|
Db|6666666666--999999999--6666666666--9999999999---------|
Ab|4444444444--777777777--4444444444--7777777777---------|
Eb|------------------------------------------------------|

            
            
Suggest correction
Creating personal tab
Creating personal tab
You can edit any tab online and save it as your Personal.

You can edit, replace or remove any tab part or add personal notes – all changes will be seen only by you.

Personal tabs can be accessed anytime from any device, even offline.
Learn more »
Give kudos to tab author, rate the tab!
1 2 3 4 5
comments
print report bad tab
2 comments total.
0 reply
Krost 72 Oct 09, 2007 03:42 PM

That's only the beginning. And it's not even accurate for the intro.

0 reply
josepresas 31 Jun 08, 2008 10:52 AM

yeah what the other guy said.
and it dosent sound right at all! sorry!

guest
You may want to rate the tab now too:
select rating
Wanna post a correction for this tab? Suggest correction