Oops, an error
Loading. Please wait.

Solo A Terceros tab

version 9
by Panda
81 views 1 this week
no commentswrite comment
1 2 3 4 5
3 more votes to show rating
add to favorites
×
Save as Personal and add changes to this tab that will be seen only by you. Learn more ›
×
You can save this tab as Personal to edit and correct it or add notes. All changes will be seen only by you. Learn more »
launch autoscroll
font size
0
reset
how to read this tab
guitar tuner
edit
Autoscroll
slow
fast
+/-
esc
set tempo
stop
Ya SABen EN BEMoL ChekEN la KANZiOoN


Intro.

E------------------------------------------------
B------1----1----1----1----1-------1---1---------
G----1----1---------1----1----1---1---1---1------
D--3----3----3----2----2----2----1---1---1-------
A------------------------------------------------
E------------------------------------------------

E--------1----1----------------------------------
B------1---1--1----------------------------------
G----1--------1----------------------------------
D--0----------3----------------------------------
A------------------------------------------------
E------------------------------------------------

Verso 1.:.
E------------------------------------------------
B------------------------------------------------
G?5~-5-5-5-5-5-5-5-5-5-5-5-5-5-5-----------------
D?5~-5-5-5-5-5-5-5-5-5-5-5-5-5-5-----------------
A?3~-3-3-3-3-3-3-3-3-3-3-3-3-3-3-----------------
E------------------------------------------------

     * * * * * * * * * * * * * *

E------------------------------------------------
B---5h6-6----------------------------------------
G---5-5-5----------------------------------------
D------------7-7-7-7-7-7--5-5-5-5-5-5-5-5--------
A------------------------------------------------
E------------------------------------------------
             * * * * * *  * * * * * * * *

E------------------------------------------------
B---5h6-6----------------------------------------
G---5-5-5----------------------------------------
D------------7-7-7-7-7-7--2-2-2-2-3-3-3----------
A------------------------------------------------
E------------------------------------------------
             * * * * * *  * * * * * * *

E------------------------------------------------
B---5h6-6----------------------------------------
G---5-5-5----------------------------------------
D------------7-7-7-7-7-7--5-5-5-5-5-5-5-5--------
A------------------------------------------------
E------------------------------------------------
             * * * * * *  * * * * * * * *

E------------------------------------------------
B---5h6-6----------------------------------------
G---5-5-5----------------------------------------
D------------7-7-7-7-7-7--2-2-2-2-3-3-3----------
A------------------------------------------------
E------------------------------------------------
             * * * * * *  * * * * * * *


E------------------------------------------------
B---5h6-6----------------------------------------
G---5-5-5----------------------------------------
D------------7-7-7-7-7-7--5-5-5-5-5-5-5-5--------
A------------------------------------------------
E------------------------------------------------
             * * * * * *  * * * * * * * *

E------------------------------------------------
B---5h6-6----------------------------------------
G---5-5-5----------------------------------------
D------------7-7-7-7-7-7--2-2-2-2-3-3-3----------
A------------------------------------------------
E------------------------------------------------
             * * * * * *  * * * * * * *


E------------------------------------------------
B---5h6-6----------------------------------------
G---5-5-5----------------------------------------
D------------7-7-7-7-7-7--5-5-5-5-5-5-5-5--------
A------------------------------------------------
E------------------------------------------------
             * * * * * *  * * * * * * * *

E------------------------------------------------
B---5h6-6----------------------------------------
G---5-5-5-------------------------5-5-5----------
D------------7-7-7-7-7-7--2-2-2-2-3-3-3----------
A------------------------------------------------
E------------------------------------------------
             * * * * * *  * * * * * * *

E------------------------------------------------
B--------6-----6----6-----6-----6----------------
G------7-----7----------5-----5----5-------------
D----8-----8-----8----7----7-----7---------------
A------------------------------------------------
E------------------------------------------------
     * * * * * * * * * * * * * * * *

E------------------------------------------------
B-------8------8-----8-------10------8-----------
G-----9------9-------------9-------9------9------
D--10-----10-----10-----10------10-----10--------
A------------------------------------------------
E------------------------------------------------
   * * * * * * * * * * * * * * * * * * * *


E------------------------------------------------
B--------6-----6----6-----6-----6----------------
G------7-----7----------5-----5----5-------------
D----8-----8-----8----7----7-----7---------------
A------------------------------------------------
E------------------------------------------------
     * * * * * * * * * * * * * * * *

E------------------------------------------------
B-------8------8-----8-------10------8-----------
G-----9------9-------------9-------9------9------
D--10-----10-----10-----10------10-----10--------
A------------------------------------------------
E------------------------------------------------
   * * * * * * * * * * * * * * * * * * * *

E------------------------------------------------
B--------6-----6----6-----6-----6----------------
G------7-----7----------5-----5----5-------------
D----8-----8-----8----7----7-----7---------------
A------------------------------------------------
E------------------------------------------------
     * * * * * * * * * * * * * * * *

E------------------------------------------------
B-------8------8-----8-------10------8-----------
G-----9------9-------------9-------9------9------
D--10-----10-----10-----10------10-----10--------
A------------------------------------------------
E------------------------------------------------
   * * * * * * * * * * * * * * * * * * * *

E------------------------------------------------
B--------6-----6----6-----6-----6----------------
G------7-----7----------5-----5----5-------------
D----8-----8-----8----7----7-----7---------------
A------------------------------------------------
E------------------------------------------------
     * * * * * * * * * * * * * * * *

E------------------------------------------------
B-------8------8-----8-------10------8-----------
G-----9------9-------------9-------9------9------
D--10-----10-----10-----10------10-----10--------
A------------------------------------------------
E------------------------------------------------
   * * * * * * * * * * * * * * * * * * * *


(CORO)

E-------------------------------------------------
B-------------------------------------------------
G---7-7---10-10-----------------------------------
D---7-7---10-10---8-8---8-8------8----8-----------
A---5-5---8--8----8-8---8-8------8----8-----------
E-----------------6-6---6-6------6----6-----------

E-------------------------------------------------
B-------------------------------------------------
G---7-7---10-10-----------------------------------
D---7-7---10-10---8-8---8-8------8----8-----------
A---5-5---8--8----8-8---8-8------8----8-----------
E-----------------6-6---6-6------6----6-----------
E-------------------------------------------------
B-------------------------------------------------
G---7-7---10-10-----------------------------------
D---7-7---10-10---8-8---8-8------8----8-----------
A---5-5---8--8----8-8---8-8------8----8-----------
E-----------------6-6---6-6------6----6-----------

E-------------------------------------------------
B-------------------------------------------------
G---7-7---10-10---9--9----9--9----9--9------------
D---7-7---10-10---10-10---10-10---10-10-----------
A---5-5---8--8----7--7----7--7----7?-7------------
E-------------------------------------------------

E-------------------------------------------------
B-------------------------------------------------
G---7-7---10-10-----------------------------------
D---7-7---10-10---8-8---8-8------8----8-----------
A---5-5---8--8----8-8---8-8------8----8-----------
E-----------------6-6---6-6------6----6-----------

E-------------------------------------------------
B-------------------------------------------------
G---7-7---10-10-----------------------------------
D---7-7---10-10---8-8---8-8------8----8-----------
A---5-5---8--8----8-8---8-8------8----8-----------
E-----------------6-6---6-6------6----6-----------

E-------------------------------------------------
B-------------------------------------------------
G---7-7---10-10-----------------------------------
D---7-7---10-10---8-8---8-8------8----8-----------
A---5-5---8--8----8-8---8-8------8----8-----------
E-----------------6-6---6-6------6----6-----------

E-------------------------------------------------
B-------------------------------------------------
G---7-7---10-10---9--9----9--9----9--9------------
D---7-7---10-10---10-10---10-10---10-10-----------
A---5-5---8--8----7--7----7--7----7?-7------------
E-------------------------------------------------

Verso 2

E-------------------------------------------------
B-------------------------------------------------
G---5-5----5-5---5-5----5-5---5---5---------------
D---5-5----5-5---5-5----5-5---5---5---------------
A---3-3----3-3---3-3----3-3---3---3---------------
E-------------------------------------------------


E------------------------------------------------
B---5h6-6----------------------------------------
G---5-5-5----------------------------------------
D------------7-7-7-7-7-7--5-5-5-5-5-5-5-5--------
A------------------------------------------------
E------------------------------------------------
             * * * * * *  * * * * * * * *

E------------------------------------------------
B---5h6-6----------------------------------------
G---5-5-5----------------------------------------
D------------7-7-7-7-7-7--2-2-2-2-3-3-3----------
A------------------------------------------------
E------------------------------------------------
             * * * * * *  * * * * * * *

E------------------------------------------------
B---5h6-6----------------------------------------
G---5-5-5----------------------------------------
D------------7-7-7-7-7-7--5-5-5-5-5-5-5-5--------
A------------------------------------------------
E------------------------------------------------
             * * * * * *  * * * * * * * *

E------------------------------------------------
B---5h6-6----------------------------------------
G---5-5-5----------------------------------------
D------------7-7-7-7-7-7--2-2-2-2-3-3-3----------
A------------------------------------------------
E------------------------------------------------
             * * * * * *  * * * * * * *

E------------------------------------------------
B---5h6-6----------------------------------------
G---5-5-5----------------------------------------
D------------7-7-7-7-7-7--5-5-5-5-5-5-5-5--------
A------------------------------------------------
E------------------------------------------------
             * * * * * *  * * * * * * * *

E------------------------------------------------
B---5h6-6----------------------------------------
G---5-5-5----------------------------------------
D------------7-7-7-7-7-7--2-2-2-2-3-3-3----------
A------------------------------------------------
E------------------------------------------------
             * * * * * *  * * * * * * *

E------------------------------------------------
B---5h6-6----------------------------------------
G---5-5-5----------------------------------------
D------------7-7-7-7-7-7--5-5-5-5-5-5-5-5--------
A------------------------------------------------
E------------------------------------------------
             * * * * * *  * * * * * * * *

E------------------------------------------------
B---5h6-6----------------------------------------
G---5-5-5----------------------------------------
D------------7-7-7-7-7-7--2-2-2-2-3-3-3----------
A------------------------------------------------
E------------------------------------------------
             * * * * * *  * * * * * * *
E------------------------------------------------
B---5h6-6----------------------------------------
G---5-5-5----------------------------------------
D------------7-7-7-7-7-7--5-5-5-5-5-5-5-5--------
A------------------------------------------------
E------------------------------------------------
             * * * * * *  * * * * * * * *

E------------------------------------------------
B---5h6-6----------------------------------------
G---5-5-5----------------------------------------
D------------7-7-7-7-7-7--2-2-2-2-3-3-3----------
A------------------------------------------------
E------------------------------------------------
             * * * * * *  * * * * * * *


E------------------------------------------------
B--------6-----6----6-----6-----6----------------
G------7-----7----------5-----5----5-------------
D----8-----8-----8----7----7-----7---------------
A------------------------------------------------
E------------------------------------------------
     * * * * * * * * * * * * * * * *

E------------------------------------------------
B-------8------8-----8-------10------8-----------
G-----9------9-------------9-------9------9------
D--10-----10-----10-----10------10-----10--------
A------------------------------------------------
E------------------------------------------------
   * * * * * * * * * * * * * * * * * * * *


E------------------------------------------------
B--------6-----6----6-----6-----6----------------
G------7-----7----------5-----5----5-------------
D----8-----8-----8----7----7-----7---------------
A------------------------------------------------
E------------------------------------------------
     * * * * * * * * * * * * * * * *

E------------------------------------------------
B-------8------8-----8-------10------8-----------
G-----9------9-------------9-------9------9------
D--10-----10-----10-----10------10-----10--------
A------------------------------------------------
E------------------------------------------------
   * * * * * * * * * * * * * * * * * * * *

E------------------------------------------------
B--------6-----6----6-----6-----6----------------
G------7-----7----------5-----5----5-------------
D----8-----8-----8----7----7-----7---------------
A------------------------------------------------
E------------------------------------------------
     * * * * * * * * * * * * * * * *

E------------------------------------------------
B-------8------8-----8-------10------8-----------
G-----9------9-------------9-------9------9------
D--10-----10-----10-----10------10-----10--------
A------------------------------------------------
E------------------------------------------------
   * * * * * * * * * * * * * * * * * * * *

E------------------------------------------------
B--------6-----6----6-----6-----6----------------
G------7-----7----------5-----5----5-------------
D----8-----8-----8----7----7-----7---------------
A------------------------------------------------
E------------------------------------------------
     * * * * * * * * * * * * * * * *

E------------------------------------------------
B-------8------8-----8-------10------8-----------
G-----9------9-------------9-------9------9------
D--10-----10-----10-----10------10-----10--------
A------------------------------------------------
E------------------------------------------------
   * * * * * * * * * * * * * * * * * * * *

(Coro)


E-------------------------------------------------
B-------------------------------------------------
G---7-7---10-10-----------------------------------
D---7-7---10-10---8-8---8-8------8----8-----------
A---5-5---8--8----8-8---8-8------8----8-----------
E-----------------6-6---6-6------6----6-----------

E-------------------------------------------------
B-------------------------------------------------
G---7-7---10-10-----------------------------------
D---7-7---10-10---8-8---8-8------8----8-----------
A---5-5---8--8----8-8---8-8------8----8-----------
E-----------------6-6---6-6------6----6-----------
E-------------------------------------------------
B-------------------------------------------------
G---7-7---10-10-----------------------------------
D---7-7---10-10---8-8---8-8------8----8-----------
A---5-5---8--8----8-8---8-8------8----8-----------
E-----------------6-6---6-6------6----6-----------

E-------------------------------------------------
B-------------------------------------------------
G---7-7---10-10---9--9----9--9----9--9------------
D---7-7---10-10---10-10---10-10---10-10-----------
A---5-5---8--8----7--7----7--7----7?-7------------
E-------------------------------------------------


E-------------------------------------------------
B-------------------------------------------------
G---7-7---10-10-----------------------------------
D---7-7---10-10---8-8---8-8------8----8-----------
A---5-5---8--8----8-8---8-8------8----8-----------
E-----------------6-6---6-6------6----6-----------

E-------------------------------------------------
B-------------------------------------------------
G---7-7---10-10-----------------------------------
D---7-7---10-10---8-8---8-8------8----8-----------
A---5-5---8--8----8-8---8-8------8----8-----------
E-----------------6-6---6-6------6----6-----------

E-------------------------------------------------
B-------------------------------------------------
G---7-7---10-10-----------------------------------
D---7-7---10-10---8-8---8-8------8----8-----------
A---5-5---8--8----8-8---8-8------8----8-----------
E-----------------6-6---6-6------6----6-----------

E-------------------------------------------------
B-------------------------------------------------
G---7-7---10-10---9--9----9--9----9--9------------
D---7-7---10-10---10-10---10-10---10-10-----------
A---5-5---8--8----7--7----7--7----7?-7------------
E-------------------------------------------------

E-------------------------------------------------
B-------------------------------------------------
G---5-5----5-5---5-5----5-5---5---5---------------
D---5-5----5-5---5-5----5-5---5---5---------------
A---3-3----3-3---3-3----3-3---3---3---------------
E-------------------------------------------------

(Solo)
E-------------------------------------------------
B-13--13--13--------------------------------------
G------------12--14---12?-12/5 -10-10-9-9/10?10/12
D-------------------------------------------------
A-------------------------------------------------
E-------------------------------------------------

E-------------------------------------------------
B-13--13--13--------------------------------------
G------------12--14---12?-12/5 -10-10-9-9/10?10/12
D-------------------------------------------------
A-------------------------------------------------
E-------------------------------------------------


E-------------------------------------------------
B-13--13--13--------------------------------------
G------------12--14---12?-12/5 -10-10-9-9/10?10/12
D-------------------------------------------------
A-------------------------------------------------
E-------------------------------------------------

E-------------------------------------------------
B-13--13--13--------------------------------------
G------------12--14---12?-12/5 -10-10-9-9/10?10/12
D-------------------------------------------------
A-------------------------------------------------
E-------------------------------------------------

E-------------------------------------------------
B-------------------------------------------------
G-15-15-15-15-15-15-15-15-10-10-10-10-10-10-10-10-
D-------------------------------------------------
A-------------------------------------------------
E-------------------------------------------------

E-------------------------------------------------
B-------------------------------------------------
G-9-9-9-9-9-9-9-9--12-12-12--14-14-12-12-12-------
D-------------------------------------------------
A-------------------------------------------------
E-------------------------------------------------

E-------------------------------------------------
B-------------------------------------------------
G--7-7-7-7-7-7-7-7-14-14-14-14-14-14-14--10-10----
D-------------------------------------------------
A-------------------------------------------------
E-------------------------------------------------

E-------------------------------------------------
B-------------------------------------------------
G?-5-5-5-5-5-5-5-5---12-12-12-12-12-12-12-12------
D-------------------------------------------------
A-------------------------------------------------
E-------------------------------------------------

E-------------------------------------------------
B-------------------------------------------------
G--15-15-15-15-15-15-15-15-10-10-10-10-10-10-10-10
D-------------------------------------------------
A-------------------------------------------------
E-------------------------------------------------

E-------------------------------------------------
B-------------------------------------------------
G--9-9-9-9-9-9-9-9-12-12-12-14-14-14-12-12-12-10--
D-------------------------------------------------
A-------------------------------------------------
E-------------------------------------------------

E-------------------------------------------------
B-------------------------------------------------
G---7-7---10-10-----------------------------------
D---7-7---10-10---8-8---8-8------8----8-----------
A---5-5---8--8----8-8---8-8------8----8-----------
E-----------------6-6---6-6------6----6-----------

E-------------------------------------------------
B-------------------------------------------------
G---7-7---10-10-----------------------------------
D---7-7---10-10---8-8---8-8------8----8-----------
A---5-5---8--8----8-8---8-8------8----8-----------
E-----------------6-6---6-6------6----6-----------
E-------------------------------------------------
B-------------------------------------------------
G---7-7---10-10-----------------------------------
D---7-7---10-10---8-8---8-8------8----8-----------
A---5-5---8--8----8-8---8-8------8----8-----------
E-----------------6-6---6-6------6----6-----------

E-------------------------------------------------
B-------------------------------------------------
G---7-7---10-10---9--9----9--9----9--9------------
D---7-7---10-10---10-10---10-10---10-10-----------
A---5-5---8--8----7--7----7--7----7?-7------------
E-------------------------------------------------


E-------------------------------------------------
B-------------------------------------------------
G---7-7---10-10-----------------------------------
D---7-7---10-10---8-8---8-8------8----8-----------
A---5-5---8--8----8-8---8-8------8----8-----------
E-----------------6-6---6-6------6----6-----------

E-------------------------------------------------
B-------------------------------------------------
G---7-7---10-10-----------------------------------
D---7-7---10-10---8-8---8-8------8----8-----------
A---5-5---8--8----8-8---8-8------8----8-----------
E-----------------6-6---6-6------6----6-----------

E-------------------------------------------------
B-------------------------------------------------
G---7-7---10-10-----------------------------------
D---7-7---10-10---8-8---8-8------8----8-----------
A---5-5---8--8----8-8---8-8------8----8-----------
E-----------------6-6---6-6------6----6-----------

E-------------------------------------------------
B-------------------------------------------------
G---7-7---10-10---9--9----9--9----9--9------------
D---7-7---10-10---10-10---10-10---10-10-----------
A---5-5---8--8----7--7----7--7----7?-7------------
E-------------------------------------------------


E-------------------------------------------------
B---5-5----5-5?--5-5----5-5---5---5---------------
G---5-5----5-5---5-5----5-5---5---5---------------
D---3-3----3-3---3-3----3-3---3---3---------------
A-------------------------------------------------
E-------------------------------------------------

E------------------------------------------------
B---5h6-6----------------------------------------
G---5-5-5----------------------------------------
D------------7-7-7-7-7-7--5-5-5-5-5-5-5-5--------
A------------------------------------------------
E------------------------------------------------
             * * * * * *  * * * * * * * *

E------------------------------------------------
B---5h6-6----------------------------------------
G---5-5-5----------------------------------------
D------------7-7-7-7-7-7--2-2-2-2-3-3-3----------
A------------------------------------------------
E------------------------------------------------
             * * * * * *  * * * * * * *

E------------------------------------------------
B---5h6-6----------------------------------------
G---5-5-5----------------------------------------
D------------7-7-7-7-7-7--5-5-5-5-5-5-5-5--------
A------------------------------------------------
E------------------------------------------------
             * * * * * *  * * * * * * * *

E------------------------------------------------
B---5h6-6----------------------------------------
G---5-5-5----------------------------------------
D------------7-7-7-7-7-7--2-2-2-2-3-3-3----------
A------------------------------------------------
E------------------------------------------------
             * * * * * *  * * * * * * *

E------------------------------------------------
B---5h6-6----------------------------------------
G---5-5-5----------------------------------------
D------------7-7-7-7-7-7--5-5-5-5-5-5-5-5--------
A------------------------------------------------
E------------------------------------------------
             * * * * * *  * * * * * * * *

E------------------------------------------------
B---5h6-6----------------------------------------
G---5-5-5----------------------------------------
D------------7-7-7-7-7-7--2-2-2-2-3-3-3----------
A------------------------------------------------
E------------------------------------------------
             * * * * * *  * * * * * * *


E------------------------------------------------
B---5h6-6----------------------------------------
G---5-5-5----------------------------------------
D------------7-7-7-7-7-7--5-5-5-5-5-5-5-5--------
A------------------------------------------------
E------------------------------------------------
             * * * * * *  * * * * * * * *

E------------------------------------------------
B---5h6-6----------------------------------------
G---5-5-5----------------------------------------
D------------7-7-7-7-7-7--2-2-2-2-3-3-3----------
A------------------------------------------------
E------------------------------------------------
             * * * * * *  * * * * * * *
E------------------------------------------------
B---5h6-6----------------------------------------
G---5-5-5----------------------------------------
D------------7-7-7-7-7-7--5-5-5-5-5-5-5-5--------
A------------------------------------------------
E------------------------------------------------
             * * * * * *  * * * * * * * *


Ok Ok DISFrUTEN la NuevA Rola De pxndx Zta AL 100% cOrReCtHA
Y PZ ZE La DEdIkO a Mis AMIGos Q LES gUSTa PXNDX
TACHO,MOY,GERA,JULIO,SERGIO,DAVID,CHATO,GARY,CAME
BETO,ZAMET ETC..
Y LA canción Va ParA YA ZAben ¡!SOlO a TERcerOS

kARla TE amo!! zr aNd Zra MuFFiN'Z .:. TUPPeRtz!¡

The mUFfIn'Z

            
            
Suggest correction
Creating personal tab
Creating personal tab
You can edit any tab online and save it as your Personal.

You can edit, replace or remove any tab part or add personal notes – all changes will be seen only by you.

Personal tabs can be accessed anytime from any device, even offline.
Learn more »
Give kudos to tab author, rate the tab!
1 2 3 4 5
comments
print report bad tab
guest
Wanna post a correction for this tab? Suggest correction