Oops, an error
Loading. Please wait.

Tripulacion Armar Toboganes tab

version 3
version 3

Interactive

by Panda
40 views 1 this week
no commentswrite comment
1 2 3 4 5
3 more votes to show rating
add to favorites
×
Save as Personal and add changes to this tab that will be seen only by you. Learn more ›
×
You can save this tab as Personal to edit and correct it or add notes. All changes will be seen only by you. Learn more »
launch autoscroll
font size
0
reset
how to read this tab
guitar tuner
edit
Autoscroll
slow
fast
+/-
esc
set tempo
stop
Author
Unregistered
PUES ESTA ROLA ES FACIL,ES RECHIDA,
TIENE MUY BUENOS TIEMPOS,
SI TIENEN TECLADO MEJOR, RECUERDEN AFINAR LA GUITARRA EN BEMOL PANDA
SOLO LAS TOCA DE ESA FORMA,
YO NO LA AFINO ASI PORQUE DESPUES ANDO DESAFINADO Y ES MUCHO PROBLERMA,
PERO SI LO QUIEREN HACER ASI,
 SOLO BAJENLE UN TRASTE A CADA NOTA, ASI QUE AQUÍ LES VA:


1)INTRO:
PARTE 1
e|-------------------3-3-3-3-3-1-1-1-1-1-1--|
B|-4-4-4-4-4-3-3-3--------------------------|
G|-----------------3-3----------------------|
D|------------------------------------------|
A|------------------------------------------|
E|------------------------------------------|

PARTE 2
e|---------------------------------------------|
B|-4-4-4-4-4-3-3-3-----------------------------|
G|-----------------3-3-3-3-3-3-3-3-3-5-5-5-5-5-|
D|---------------------------------------------|
A|---------------------------------------------|
E|---------------------------------------------|

2)EN ESTA PARTE ENTRA EL TECLADO,
AQUÍ LES PONGO COMO IRIA EN GUITARRA, SI QUIEREN SACARLA PARA TECLADO,
SOLO SAQUEN LAS NOTAS SEGÚN COMO IRIA EN LOS TRATES, OK:


e|--------------3---3-1------|
B|-4---4-3---3-----------3-4-|
G|---3-----3------3----3-----|
D|---------------------------| X2
A|---------------------------|
E|---------------------------|

3)VERSO 1
EN ESTA PARTE CAMBIAN LAS 2 PARTES DEL INTRO ASI:

PARTE 1
e|---------------------------------------------|
B|-4-4-4-4-4-3-3-3-----------------------------|
G|-----------------3-3-3-3-3-5-5-5-5-7-7-7-7-7-|
D|---------------------------------------------|
A|---------------------------------------------|
E|---------------------------------------------|

PARTE 2
e|-------------------------------------------------|
B|-4-4-4-4-4-3-3-3---------------------------------|
G|-----------------3-3-3-3-3-3---------------------|
D|-----------------------------3-3-3-3-3-5-5-5-5-5-|
A|-------------------------------------------------|
E|-------------------------------------------------|

P1
Me gustaría poderle decir
P2
Que representa la desdicha en mi
P1                                   P2
Pero no puedo, no me atrevo a mentir, enséñame?.me enseñas?

4)DESPUÉS SIGUE ESTE ARPEGIO:

e|----------------------------------|
B|-3---3---3---4---1---3---3---3--4-|
G|---3---3---3---3---1---3---3---3--|
D|----------------------------------|
A|----------------------------------|
E|----------------------------------|

5)VERSO 2
SE REPITE LO MISMO QUE ANTES EN EL PRIMER VERSO:
P1
Solo el pasado podría competir
P2
Con la belleza de una foto de ti
P1                                 P2
La fantasía duraría y no tendría fin? me enseñas?


6)CORO 1

Me quiero informar si piensa en mi
Si acaso ese pensamiento es sutil


e|-----------------------------|
B|-----------------------------|
G|---88888---------------------|
D|---88888-8888-10101010-8888--| X2
A|---66666-8888-10101010-8888--|
E|---------6666-88888888-6666--|
     xxxxx xxxx xxxxxxxx xxxx

7)AHORA CAMBIA A:

Pero no servirá de nada, yo se que no existe

e|--------------------------------------|
B|--------------------------------------|
G|--6666-88888---------------8888-------|
D|--6666-88888-10101010-8888-6666-8888--|
A|--4444-66666-10101010-8888-6666-8888--|
E|-------------88888888-6666------6666--|
    xxxx xxxxx xxxxxxxx xxxx xxxx xxxx

8)DESPUÉS:

e|---------|
B|---------|
G|--66-8-9-|
D|--66-8-9-|
A|--44-6-7-|
E|---------|


9)REGRESA A:

e|--------------3---3-1------|
B|-4---4-3---3-----------3-4-|
G|---3-----3------3----3-----|
D|---------------------------| X2
A|---------------------------|
E|---------------------------|

10)DESPUÉS OTRA VEZ:


e|---------------------------------1-|
B|-3---3---3---4---1---3---3---3-----|
G|---3---3---3---3---1---3---3---3---|
D|-----------------------------------|
A|-----------------------------------|
E|----------------------------------|


11)CORO 2
EN ESTA PARTE ENTRAN TODO LOS INTRUMENTOS
Y LA GUITARRA SE TOCA CORRIDA:

Feliz ocupo ser, no quiero aprender
Es doloroso el proceso aquel

e|-----------------------------|
B|-----------------------------|
G|---88888---------------------|
D|---88888-8888-10101010-8888--| X2
A|---66666-8888-10101010-8888--|
E|---------6666-88888888-6666--|

12)AHORA CAMBIA A:

Pero si tu no estás nada podré yo hacer

e|--------------------------------------|
B|--------------------------------------|
G|--6666-88888---------------8888-------|
D|--6666-88888-10101010-8888-6666-8888--|
A|--4444-66666-10101010-8888-6666-8888--|
E|-------------88888888-6666------6666--|


13)TERMINA EN:        Y CAMBIA A:

e|---------|       e|----------|
B|---------|       B|----------|
G|--66-8-9-|       G|------8-9-|
D|--66-8-9-|       D|-1010-8-9-|
A|--44-6-7-|       A|-1010-6-7-|
E|---------|       E|-8888-----|


14)DESPUÉS VIENE EL SOLO:


Parte 1:
e|-----------------------------------|
B|-----------------------------------|
G|-----------------------------------|
D|-------------5-5-5-5-5-5-3-3-3-3-3-|
A|-6-6-6-6-6-6-----------------------|
E|-----------------------------------|


Parte 2:
e|---------------------------------------|
B|---------------------------------------|
G|---------------------------------------|
D|---------------------------------------|
A|-6-6-6-6-6-----------------------------|
E|-----------6-6-6-6-6-6-6-6-8-8-8-8-8-8-|


15)DESPUÉS:

Que tal si lo mejor está por venir
(Que tal si lo mejor)
Que la distancia deje ya de existir
(Que la distancia deje ya de existir)


e|-----------------------------|
B|-----------------------------|
G|---88888---------------------|
D|---88888-8888-10101010-8888--| X2
A|---66666-8888-10101010-8888--|
E|---------6666-88888888-6666--|

Pero eso nunca pasará, es mucho pedir

e|--------------------------------------|
B|--------------------------------------|
G|--6666-88888---------------8888-------|
D|--6666-88888-10101010-8888-6666-8888--|
A|--4444-66666-10101010-8888-6666-8888--|
E|-------------88888888-6666------6666--|


Y para terminar:

e|---------|       e|----------|
B|---------|       B|----------|
G|--66-8-9-|       G|------8-9-|
D|--66-8-9-|       D|-1010-8-9-|
A|--44-6-7-|       A|-1010-6-7-|
E|---------|       E|-8888-----|


ME COSTO UN POQUITO PERO AKI MEDIO LA ARREGLE?
LE MANDO SALUDES A ERIKA, SOS LA PERSONA
Q MAS QUIERO?TK MUCHISISISISMO!!!!
DUDAS?, PUES SI TIENEN O SI LA SABEN TOCAR MEJOR MANDENME
 LA FORMA CORRECTA A TOPANGUIN@
NO SEAN PUNK SI NO LO SIENTEN....PANDA ES PARA LOS PUNK...
NO LO PROMOCIONEN MAS...

            
            
Suggest correction
Creating personal tab
Creating personal tab
You can edit any tab online and save it as your Personal.

You can edit, replace or remove any tab part or add personal notes – all changes will be seen only by you.

Personal tabs can be accessed anytime from any device, even offline.
Learn more »
Give kudos to tab author, rate the tab!
1 2 3 4 5
comments
print report bad tab
guest
Wanna post a correction for this tab? Suggest correction