Oops, an error
Loading. Please wait.

Tripulacion Armar Toboganes tab

version 6
version 6

Interactive

by Panda
43 views 1 this week
no commentswrite comment
1 2 3 4 5
3 more votes to show rating
add to favorites
×
Save as Personal and add changes to this tab that will be seen only by you. Learn more ›
×
You can save this tab as Personal to edit and correct it or add notes. All changes will be seen only by you. Learn more »
launch autoscroll
font size
0
reset
how to read this tab
guitar tuner
edit
Autoscroll
slow
fast
+/-
esc
set tempo
stop
Author
Unregistered
Yo también padeci del oido me equivoque
en un acorde XD pero en si la canción ya
quedo perfecta...

"Lupita, Lupita, Lupita estas loquita...
va para ti XD XD XD..."


INTRO x2:
D|-13-13-13-13-13-13-13-13--12-12-12-12--|
A|---------------------------------------|
E|---------------------------------------|

D|-----------------17-17-17-17-17-17-17-17
A|-13-13-13-13-13------------------------|
E|---------------------------------------|

D|-15-15-15-15-15-15-15-15---------------|
A|---------------------------------------|
E|---------------------------------------|

D|-13-13-13-13-13-13-13-13--12-12-12-12--|
A|---------------------------------------|
E|---------------------------------------|

D|---------------------------------------|
A|-13-13-13-13-13-13-13-13s15-15-15-15-15|
E|---------------------------------------|

TECLADO
e|---------------------------|
B|-------------8---8-6-------|
G|-8---8-7---7---------8-7---|
D|---8-----8-----8-----------|X2


(TAMBIEN PUEDEN TOCAR
 EL TECLADO MÁS ALTO QUE ES COMO SE OYE
 EN LA CANCION)
e|-------------------15------15-13------|
B|-16----16-15----15---------------16-15|
G|----15-------15--------15-------------|
D|--------------------------------------|X2


VERSO 1
CON EFECTO DE TREMOL VA RÁPIDO:

PTE 1
D|-13-13-13-13-13-13-13-13--12-12-12-12--|
A|---------------------------------------|
E|---------------------------------------|

D|---------------------------------------|
A|-13-13-13-13-13--15-15-15-15-15--17-17-|
E|---------------------------------------|

D|---------------------------------------|
A|17-17-17-17-17-------------------------|
E|---------------------------------------|

PTE 2
D|-13-13-13-13-13-13-13-13--12-12-12-12--|
A|---------------------------------------|
E|---------------------------------------|

D|---------------------------------------|
A|-13-13-13-13-13------------------------|
E|---------------------------------------|

D|---------------------------------------|
A|-10-10-10-10-10-10-10-13-13-13-13-13-13|
E|---------------------------------------|


P1
"Me gustaría poderle decir..."
P2
que representa la desdicha en mi
P1                                   P2
pero no puedo, no me atrevo a mentir, "enséñame"...¿me enseñas?


DESPUÉS SIGUE ESTE ARPEGIO:

e|-----------------------------------|
B|-----------------------------------|
G|-7---7---7----8s---5---7---7---7s12|
D|---8---8---8----8s---6---8---8-----|


VERSO 2

P1
Solo el pasado podría competir
P2
con la belleza de una foto de ti
P1                                 P2
la fantasía duraría y no tendría fin...¿me enseñas?


CORO 1

"Me quiero informar si piensa en mi
 si acaso ese pensamiento es sutil..."
e|--------------------------|
B|--------------------------|
G|---88888------55555-------|
D|---88888-8888-55555-8888--| X2
A|---66666-8888-33333-8888--|
E|---------6666-------6666--|
     xxxxx xxxx xxxxxxxx xxxx


Pero no servirá de nada, yo se que no existe
e|---------------------------------|
B|---------------------------------|
G|-------88888-5555------8888------|
D|--5555-88888-5555-8888-8888--8888|
A|--5555-66666-3333-8888-6666--8888|
E|--3333------------6666-------6666|
    xxxx xxxxx xxxxxxxx xxxx xxxx xxxx

Guitarra 2 (Pte del piano)
E|----------18------|
B|----15h16---------|
G|------------------|x7

E|-18-16-15---------|
B|----------18-16-15|
G|------------------|


DESPUÉS

Guitarra1
G|-------|
D|-33-5-6|
A|-33-5-6|
E|-11-3-4|


(SE REPITE EL INTRO TODO AL MISMO TIEMPO)

D|-13-13-13-13-13-13-13-13--12-12-12-12--|
A|---------------------------------------|
E|---------------------------------------|

D|-----------------17-17-17-17-17-17-17-17
A|-13-13-13-13-13------------------------|
E|---------------------------------------|

D|-15-15-15-15-15-15-15-15---------------|
A|---------------------------------------|
E|---------------------------------------|

D|-13-13-13-13-13-13-13-13--12-12-12-12--|
A|---------------------------------------|
E|---------------------------------------|

D|---------------------------------------|
A|-13-13-13-13-13-13-13-13s15-15-15-15-15|
E|---------------------------------------|


TECLADO
e|-------------------15------15-13------|
B|-16----16-15----15---------------16-15|
G|----15-------15--------15-------------|
D|--------------------------------------|X2


DESPUES
e|-----------------------------------|
B|-----------------------------------|
G|-7---7---7----8s---5---7---7---7s12|
D|---8---8---8----8s---6---8---8-----|

CORO 2

Feliz ocupo ser, "no quiero aprender"
Es doloroso el proceso aquel
e|--------------------------|
B|--------------------------|
G|---88888------55555-------|
D|---88888-8888-55555-8888--| X2
A|---66666-8888-33333-8888--|
E|---------6666-------6666--|
     xxxxx xxxx xxxxxxxx xxxx


Pero si tu no estás nada podré yo hacer
e|---------------------------------|
B|---------------------------------|
G|-------88888-5555------8888------|
D|--5555-88888-5555-8888-8888--8888|
A|--5555-66666-3333-8888-6666--8888|
E|--3333------------6666-------6666|
    xxxx xxxxx xxxxxxxx xxxx xxxx xxxx

Guitarra 2 (Pte del piano)
E|----------18------|
B|----15h16---------|
G|------------------|x7

E|-18-16-15---------|
B|----------18-16-15|
G|------------------|


Guitarra1
G|-------|
D|-33-5-6|
A|-33-5-6|
E|-11-3-4|x2


SOLO:
Asi va ...

G|-10-10-10-10-10-10--12-12-12-12--8-8-8|
D|-0--0--0--0--0--0---0--0--0--0---0-0-0|
A|-8--8--8--8--8--8---10-10-10-10--6-6-6|
E|-X--X--X--X--X--X---X--X--X--X---X-X-X|

G|-10-10-10-10-10-10--12-12-12---15-15-15-|
D|-0--0--0--0--0--0---0--0--0----0--0--0--|
A|-8--8--8--8--8--8---10-10-10s--13-13-13-|
E|-X--X--X--X--X--X---X--X--X----X--X--X--|x4

Guitarra 2 (Pte del piano)
E|----------18------|
B|----15h16---------|
G|------------------|x7


Que tal si lo mejor está por venir
(que tal si lo mejor)
Que la distancia deje ya de existir
(deje ya de existir)
e|--------------------------|
B|--------------------------|
G|---88888------55555-------|
D|---88888-8888-55555-8888--| X2
A|---66666-8888-33333-8888--|
E|---------6666-------6666--|
     xxxxx xxxx xxxxxxxx xxxx


Pero eso nunca pasará, es mucho pedir
e|---------------------------------|
B|---------------------------------|
G|-------88888-5555------8888------|
D|--5555-88888-5555-8888-8888--8888|
A|--5555-66666-3333-8888-6666--8888|
E|--3333------------6666-------6666|
    xxxx xxxxx xxxxxxxx xxxx xxxx xxxx


Y para terminar:

G|-------|
D|-33-5-6|
A|-33-5-6|
E|-11-3-4|

G|------8|
D|-33-5-8|
A|-33-5-6|
E|-11-3--|

            
            
Suggest correction
Creating personal tab
Creating personal tab
You can edit any tab online and save it as your Personal.

You can edit, replace or remove any tab part or add personal notes – all changes will be seen only by you.

Personal tabs can be accessed anytime from any device, even offline.
Learn more »
Give kudos to tab author, rate the tab!
1 2 3 4 5
comments
print report bad tab
guest
Wanna post a correction for this tab? Suggest correction