Oops, an error
Loading. Please wait.

Verte Otra Vez bass

by Panda
32 views 1 this week
no commentswrite comment
1 2 3 4 5
3 more votes to show rating
add to favorites
×
Save as Personal and add changes to this tab that will be seen only by you. Learn more ›
×
You can save this tab as Personal to edit and correct it or add notes. All changes will be seen only by you. Learn more »
launch autoscroll
font size
0
reset
guitar tuner
edit
Autoscroll
slow
fast
+/-
esc
set tempo
stop
esta rola esta facil si la oyen la sacan

primer coro (intro) donde se oye oh oooh... 
x2 fig1
G-------------------------------------------------
D-------------------------------------------------
A-4-4------4-4------4-4---------------------------
E-----2-22-----2-22-----2-22-/6-66--4-44----------

verso
x3         fig2               x1 fig3
G---------------------- G----------------------
D---------------------- D----------------------
A-444------------------ A-444------------------
E-----444--222--444---- E-----444--2222--4444--


coro2 donde dice verte otra vez y cuando se empieza
a oir oh ooooh.... se hace la primer figura
x4 fig4
G-------------------------------------------------
D-------------------------------------------------
A-4-4---------------------------------------------
E-----2-22--4444444-------------------------------

hay un solo o parecen dos solos perola cosa es en 
estos solos se toca la fig2 hasta que se acabe el solo
de guitarra y ahi entra el solo de bajo 
que luego acompaña ala voz
G-------------------------------------------------
D-------------------------------------------------
A-4-4---------------------------------------------
E----44-2-2-44------------------------------------

y cuando dice verte otravez se usa la figura4 y luego 
cuando empieza el coro1 el de oh oooooh se usa la figura 1.

dudas escuchenla y lo van a saber acomodar no hay 
pierde

            
            
Suggest correction
Creating personal tab
Creating personal tab
You can edit any tab online and save it as your Personal.

You can edit, replace or remove any tab part or add personal notes – all changes will be seen only by you.

Personal tabs can be accessed anytime from any device, even offline.
Learn more »
Give kudos to tab author, rate the tab!
1 2 3 4 5
comments
print report bad tab
guest
Wanna post a correction for this tab? Suggest correction