Oops, an error
Loading. Please wait.

Behind The Sea Bass Tab

version 1
version 1

Whole song

Interactive

40 views 12 this week
no commentswrite comment
1 2 3 4 5
3 more votes to show rating
add to favorites
launch autoscroll
font size
0
reset
guitar tuner
Autoscroll
slow
fast
+/-
esc
set tempo
stop
Help us to improve Ultimate-Guitar.com Take our survey!
×
Author
Difficulty
novice
[Intro]

G|--------------------------------|
D|-19\----------------------------|
A|-------10-11-12~--12\7--0~------|
E|--------------------------------|


[Verse 1]
 A daydream...
**Whenever you hear the backing vocals go "aaoooh"
G|-----------------------------|
D|-----------------------------|
A|-----------------------------|
E|--0-5-----0-5-----0-5--------|
          like bobbing bait...
G|---------------------------------------------------------|
D|---------------------------------------------------------|
A|--7------------7------------7-------------9\5--8-7-5~----|
E|-------9\5----------9\5----------5\2---------------------|


[Chorus]
      the men all...
G|---------------------------------------------------------------|
D|----------------------2-------------6\-------------------------| 
A|---0-7\------------4--------------4-----0-2-4-5-7~------7-7----|
E|----------0-2-4-5--------0-2-4-5\--------------------7h9-------|(x2)

G|---------------|
D|------2--------|
A|---4-----------|
E|--------0-2-2--|

[Verse 2]
      toast the fine folks...
G|-------------------------------------------------------|
D|-------------------------------------------------------| 
A|------------7------------------------9\5--8-7-5-4h5----|
E---9\5--5--5---9\5--5--5-4-5\2--2--2--------------------|(x2)
     don't you know...
G|------------------------------------------------------------------------|
D|------------------------------------------------------------------------|
A|----------------------4/7--7--9-7-7-------------------------------------|
E|---5--5--5--5--5--5-7---------------9--7-7-7-5-7-5-0~--7-7-7-5-7-5-0----|

[Chorus]
G|---------------------------------------------------------------|
D|----------------------2-------------6\-------------------------| 
A|---0-7\------------4--------------4-----0-2-4-5-7~------7-7----|
E|----------0-2-4-5--------0-2-4-5\--------------------7h9-------|(x2)

G|-------------------------|
D|-------------------------|
A|---0-7\---0-2-4-5-7~-----|
E|-------------------------|

G|---------------|
D|------2--------|
A|---4-----------|
E|--------0-2-2--|

[Bridge]
    legs of wood...
G|---------------------------|
D|---------------------------| 
A|-----7-----7---4-----4-----|
E|--5-----5----4----4----2-4-|(x4)

[Outro]

G|----------------------------------------------------------------------------|
D|--------------2-4h6-------------2h4p2------------2h4p2----------------------|
A|--------2-0-0-------------2-0-0-----------4--0-0----------4-2---------------|
E|--0-0-4-------------0-0-4--------------2---------------2------4-4-2-4-5~----|


************************************

| h   Hammer-on
| p   Pull-off
| r   Release
| /   Slide up
| \   Slide down
| ~   let ring

************************************
Suggest correction
Give kudos to tab author, rate the tab!
1 2 3 4 5
comments
print report bad tab
guest
You may want to rate the tab now too:
select rating
Wanna post a correction for this tab? Suggest correction