Oops, an error
Loading. Please wait.

Behind The Sea tab

version 1
version 1

Whole song

Interactive

43,801 views 57 this week
7 commentsread comments
1 2 3 4 5
x 25
add to favorites
×
Save as Personal and add changes to this tab that will be seen only by you. Learn more ›
×
You can save this tab as Personal to edit and correct it or add notes. All changes will be seen only by you. Learn more »
launch autoscroll
font size
0
reset
how to read this tab
guitar tuner
edit
Autoscroll
slow
fast
+/-
esc
set tempo
stop
-------------------------------------------------------------------------------    
            BEHIND THE SEA (ALTERNATE VERSION) - Panic at the Disco
-------------------------------------------------------------------------------
Tabbed by: Olivia Weise (MarshmallowPies)
Email: bl4ckp34rl@att.net


Capo on 7 fret.

Tuning: EADGBe

e|---2--------0-------0----------------------2---------0------0---------|
B|-------3-------3-------------------------------3--------3-------------|
G|----------2-----------2---------------------------2------------2------|
D|---0--------0------------------------------0---------0----------------|
A|----------------------------------------------------------------------|
E|----------------------------------------------------------------------|

e|---2-------0-------0----------------------2--------0--------0----------|
B|-------3-------3-------------------------------3--------3--------------|
G|-----------------------------------------------------------------------|
D|---0--------------------------------------0----------------------------|
A|-----------------------------------------------------------------------|
E|-----------------------------------------------------------------------|
      Our daydream spills from my corked head           Breaks free of my

e|---------------0-------------------------------------------------------|
B|---3---------------3---------------------3--------3--------------------|
G|---------4--------------4---------------------0------------------------|
D|----------------------------4-------------------------0----------------|
A|---2-------------------------------------------------------------------|
E|-----------------------------------------3-----------------------------|
    wooden neck                            Left a nod over   


e|-----------------------------------------------------------------------|
B|---3----------3--------------------------------------------------------|
G|---------3---------3---------------------------------------------------|
D|------------------------5----------------------------------------------|
A|-----------------------------------------------------------------------|
E|---3-------------------------------------------------------------------|
      sleeping waves


e|---2-------0-------0----------------------2--------0--------0----------|
B|-------3-------3-------------------------------3--------3--------------|
G|-----------------------------------------------------------------------|
D|---0--------------------------------------0----------------------------|
A|-----------------------------------------------------------------------|
E|-----------------------------------------------------------------------|
      Like bobbing bait for bathing cod               Floating flocks of

e|------------0----------------------------------------------------------|
B|---3------------3-----------------------3--------3---------------------|
G|---------4----------4------------------------0-------------------------|
D|-----------------------4----------------------------0------------------|
A|---2-------------------------------------------------------------------|
E|----------------------------------------3------------------------------|
     candled swans                  Slowly drift


e|-----------------------------------------------------------------------|
B|---3----------3--------------------------------------------------------|
G|---------3---------3---------------------------------------------------|
D|------------------------5----------------------------------------------|
A|-----------------------------------------------------------------------|
E|---3-------------------------------------------------------------------|
      across wax ponds


e|--------5--------------------------------------------------------------|
B|--------------3------------3----------------------2--------------------|
G|--------2-----------------------4----------------------2---------------|
D|---0-----------------------4---------4----------------------4----------|
A|----------------------2---------------------------4--------------------|
E|---------------------------------------------2-------------------------|
       The men all played along to marching drums

e|-----------------------------------------------------------------------|
B|---------3-----------------------2-------------------------------------|
G|---------------4-----------------------2-------------------------------|
D|---------4----------4-----------------------4--------------------------|
A|---2-----------------------------4-------------------------------------|
E|----------------------------2------------------------------------------|
            And boy did they have fun 

e|---------2-------------------------------------0-----------------------|
B|-------------3--------------------2-----------------2-------3----------|
G|-----------------2----------------------2---------------2--------------|
D|---------0------------------------2---------2--------------------------|
A|---2-------------------------0-----------------------------------------|
E|-----------------------------------------------------------------------|
              Behind the sea                                       They sang,


e|--------5--------------------------------------------------------------|
B|--------------3------------3----------------------2--------------------|
G|--------2-----------------------4----------------------2---------------|
D|---0-----------------------4---------4----------------------4----------|
A|----------------------2---------------------------4--------------------|
E|---------------------------------------------2-------------------------|
       So our matching legs are marching clocks

e|-----------------------------------------------------------------------|
B|---------3-----------------------2-------------------------------------|
G|---------------4-----------------------2-------------------------------|
D|---------4----------4-----------------------4--------------------------|
A|---2-----------------------------4-------------------------------------|
E|----------------------------2------------------------------------------|
           And we're all too small  

e|---------2-------------------------------------0-----------------------|
B|-------------3--------------------2-----------------2-------3----------|
G|-----------------2----------------------2---------------2--------------|
D|---------0------------------------2---------2--------------------------|
A|---2-------------------------0-----------------------------------------|
E|-----------------------------------------------------------------------|        
            To talk to god                                     Yes, we're


e|--------2--------------------------------------------------------------|
B|--------------3------------3-----3----------------------2--------------|
G|--------2----------2------------------------------------2--------------|
D|---0----------------------------------------------------2--------------|
A|---------------------------2-----2----------------------0--------------|
E|-----------------------------------------------------------------------|
      all too smart                           To talk to god


e|---2-------0-------0----------------------2--------0--------0----------|
B|-------3-------3-------------------------------3--------3--------------|
G|-----------------------------------------------------------------------|
D|---0--------------------------------------0----------------------------|
A|-----------------------------------------------------------------------|
E|-----------------------------------------------------------------------|
          Toast the fine folks casting silver crumbs to us

e|---------------0-------------------------------------------------------|
B|---3--------------3---------------------3--------3---------------------|
G|---------4------------4---------------------0--------------------------|
D|--------------------------4-------------------------0------------------|
A|---2-------------------------------------------------------------------|
E|----------------------------------------3------------------------------|
      from the dock                      Jinxed things ringing


e|-----------------------------------------------------------------------|
B|---3---------3---------------------------------------------------------|
G|---------3--------3----------------------------------------------------|
D|-----------------------5-----------------------------------------------|
A|-----------------------------------------------------------------------|
E|---3-------------------------------------------------------------------|
     as they leak

e|---2-------0-------0----------------------2--------0--------0----------|
B|-------3-------3-------------------------------3--------3--------------|
G|-----------------------------------------------------------------------|
D|---0--------------------------------------0----------------------------|
A|-----------------------------------------------------------------------|
E|-----------------------------------------------------------------------|
   Through tiny cracks in the boardwalk Scarecrow now it's

e|-------------0---------------------------------------------------------|
B|---3-------------3---------------------3--------3----------------------|
G|---------4-----------4---------------------0---------------------------|
D|-------------------------4-------------------------0-------------------|
A|---2-------------------------------------------------------------------|
E|---------------------------------------3-------------------------------|
     time to hatch                       Sprouting suns and


e|-----------------------------------------------------------------------|
B|---3---------3---------------------------------------------------------|
G|--------3---------3----------------------------------------------------|
D|-----------------------5-----------------------------------------------|
A|-----------------------------------------------------------------------|
E|---3-------------------------------------------------------------------|
    ageless daughters


e|---2---------2-------2---------2---------2------2----------------------|
B|---------3--------3-----------------3-------3--------------------------|
G|---2--------------------3------2------------------3--------------------|
D|-----------------------------------------------------------------------|
A|-----------------------------------------------------------------------|
E|-----------------------------------------------------------------------|


e|-------------------0---------------------------------------------------|
B|--------1--------------1----------------------------0------------------|
G|-------------0--------------0--------------------2---------------------|
D|---------------------------------------------2-------------------------|
A|-----------------------------------------------------------------------|
E|-----------------------------------------------------------------------|
          Those watermelon smiles               Just can't ripen

e|----------------------------------------------------------------------|
B|-------------0------2------------------0--------------0------2--------|
G|--------2-----------2-------------2--------------2-----------2--------|
D|---2----------------2--------2--------------2----------------2--------|
A|----------------------------------------------------------------------|
E|----------------------------------------------------------------------|
           underwater          Just   can't   ripen     underwater

e|--------5-------------------------------------------------------------|
B|--------------3------------3----------------------2-------------------|
G|--------2-----------------------4----------------------2--------------|
D|---0-----------------------4---------4----------------------4---------|
A|----------------------2---------------------------4-------------------|
E|---------------------------------------------2------------------------|
       The men all played along to marching drums

e|---------------------------------2------------------------------------|
B|---------3----------------------------3-------------------------------|
G|---------------4---------------------------2--------------------------|
D|---------4----------4------------0------------------------------------|
A|---2------------------------------------------------------------------|
E|----------------------------2-----------------------------------------|
            And boy did they have fun 

e|--------------------------------------------------0-------------------|
B|---------3------------------------2--------------------2---------3----|
G|--------------4-------------------------2--------------------2--------|
D|---------4---------4--------------2---------2-------------------------|
A|---2-------------------------0----------------------------------------|
E|----------------------------------------------------------------------|
              Behind the sea                                       They sang,


e|--------5-------------------------------------------------------------|
B|--------------3------------3----------------------2-------------------|
G|--------2-----------------------4----------------------2--------------|
D|---0-----------------------4---------4----------------------4---------|
A|----------------------2---------------------------4-------------------|
E|---------------------------------------------2------------------------|
       So our matching legs are marching clocks

e|----------------------------------------------------------------------|
B|---------3-----------------------2------------------------------------|
G|---------------4-----------------------2------------------------------|
D|---------4----------4-----------------------4-------------------------|
A|---2-----------------------------4------------------------------------|
E|----------------------------2-----------------------------------------|
           And we're all too small  

e|---------5----------------------------------------0-------------------|
B|---------3------------------------2-------------------2--------3------|
G|--------------4-------------------------2-----------------2-----------|
D|-------------------4--------------2---------2-------------------------|
A|---2-------------------------0----------------------------------------|
E|----------------------------------------------------------------------|        
           To talk to god                                       Yeah, we're

e|--------2---------------------------------------------------------0----------0--------|
B|--------------3------------------3---------------------2---------------2---------2----|
G|--------2----------2------------------4----------------------2------------------------|
D|---0-----------------------------4----------4----------2------------------------------|
A|---------------------------2-----------------------0----------------------------------|
E|--------------------------------------------------------------------------------------|
   all too smart to talk to god                                        Oh, we're all


e|--------2----------------------------------------------------------------|
B|--------------3------------3-----3----------------------2----------------|
G|--------2----------2------------------------------------2----------------|
D|---0----------------------------------------------------2----------------|
A|---------------------------2-----2----------------------0----------------|
E|-------------------------------------------------------------------------|
      all too smart                           To talk to god

            
            
Suggest correction
Creating personal tab
Creating personal tab
You can edit any tab online and save it as your Personal.

You can edit, replace or remove any tab part or add personal notes – all changes will be seen only by you.

Personal tabs can be accessed anytime from any device, even offline.
Learn more »
comments
print report bad tab
7 comments total. Showing first comments.
+1 reply
WillNotStop 10 Apr 09, 2008 09:45 PM

Sweet tabs dude.

0 reply
RJA5410 16 Apr 27, 2008 06:22 PM

yea this is really good some bass notes missing but its REALLY good

0 reply
FunnyAsCancer 10 May 03, 2008 01:23 PM

Sounds pretty good to me.

guest
You may want to rate the tab now too:
select rating
Wanna post a correction for this tab? Suggest correction