Oops, an error
Loading. Please wait.

Build God Then Well Talk bass

version 4
version 4

Whole song

Interactive

261 views 1 this week
no commentswrite comment
1 2 3 4 5
3 more votes to show rating
add to favorites
×
Save as Personal and add changes to this tab that will be seen only by you. Learn more ›
×
You can save this tab as Personal to edit and correct it or add notes. All changes will be seen only by you. Learn more »
launch autoscroll
font size
0
reset
guitar tuner
edit
Autoscroll
slow
fast
+/-
esc
set tempo
stop
Author
Difficulty
Tabbed by: Luno Blanco

This is the BASS tablature for the song "Build God, Then We'll Talk" by Panic! at the Disco. This song is from 
their first studio album, A Fever You Can't Sweat Out.

I noticed that the tabs on this site weren't totally accurate for this song so I went note by note with the
official song and tabbed it all here. The only problem that I had were the notes being played during the 
transitions that included drum fills, as the drums largely droned out the sound of the bass at those times.

Besides that, I wrote notes around parts that took me a while to understand myself, and will soon attach a link
to a YouTube video of me playing the song, to better help explain the pauses and tempo that the bass plays 
throughout the song. If you have any questions, feel free to leave a comment below or e-mail me at 
lunicorn305@gmail.com with any questions or even clarifications on what notes during the drum fills are being 
played. I help this tab helps, enjoy!



Standard EADG Bass Tuning

| /  slide up
| \  slide down
| h  hammer-on
| p  pull-off
| ~  vibrato
| +  harmonic
| x  Mute note

Intro                          
(0:07)
G:----
D:4~--
A:----
E:----

(0:10)
G:---------|
D:4-2------|
A:----5----|
E:------3--|

Verse         
(0:14)
G:------------------------------------------------------------------------|  (the first and middle 4 before the
D:4------4-------7-------4---2---0--2-4----4-------7--4-2-----------------|   2 on the A string are done on the
A:-----2-----7-------5-------------------2-----7----------5---------------|   "screech" you hear)
E:---------5---5---3---3---2---1-------------5---5----------33-22-11-2222-|

Chorus
(0:32)
G:-----------------------------|
D:-----------------------------|
A:22-55-1010-77-22-77-55--2----|     2x
E:-----------------------------|

Pre-Verse
(0:53)
G:---------------------------------------------------------------------------------|
D:---------------------------------------------------------------------------------|
A:----------------------------------------------------------444-----------------2~-|
E:000-222-333-555-000-222-333-6-777-666-555-444-333-222-000-----222222222222222----|
                                                                    (15x 2's)
Verse
(1:10)
G:-------------------------|
D:4-2----------------------|
A:----5--------------------|
E:------3-3/2-2/1-1/2222---|

1st time ("'virgin' yes, the one..."); (1:14)
G:-----------------------------------|
D:--4-------7-------4---2---0----4---|
A:2-----7-------5--------------2-----|
E:----5---5---3---3---2---1----------|

2nd time ("well all the hours before.."); (1:23)
G:-----------------------------------|
D:---4-------7-------4---2---0---x---|
A:22-----7-------5---------------4---|
E:-----5---5---3---3---2---1---2-----|

3rd time ("in a compact. There was..."); (1:29)
G:-----------------------------------------------------------------------|
D:--4--------7-4-2----------4~----4--------7-----------------------------|
A:2-----7----------5------------2------7-------5-------------------------|
E:----5---5----------3---------------5---5---3---33-22-11-22-3-3-3-3-222-| (final 222 is in eighth notes)

Chorus
(1:49)
G:-----------------------------|
D:-----------------------------|
A:22-55-1010-77-22-77-55--2----|     2x
E:-----------------------------|

Bridge
(2:07)
G:------------------------------------------------------------------------------------------|
D:------------------------------------------------------------------------------------------|
A:--------------------------------------------------------------------------------------444-|
E:333333-777777-333333-777777-000-222-333-555-000-222-333-6-777-666-555-444-333-222-000-----|

G:--------------------------------------|
D:--------------------------------------|
A:---------------------------------5~---|
E:777-666-555-444-333-222-000-2~--------|

G:-------------------------|
D:-------------------------|   
A:2~-5~-10~-7~-2~-7~-5~-2~-|     2x
E:-------------------------|

G:---------------------|
D:---------------------|
A:---------------------|
E:333333333333-22222~--|
    (12x 3's)
       _______________
       Orchestra part   (2:55-3:06)
       ---------------

Outro (3:07)
G:----------------------------------------------------------|
D:----------------------------------------------------------|
A:----------------------------------------------------------|
E:333333-777777-333333-777777-000-222-333-555-000-222-333-6-|

G:-----------------------------------------------------------------|
D:-----------------------------------------------------------------|
A:----------------------------444-----------------------------4----|
E:777-666-555-444-333-222-000-----777-666-555-444-333-222-000---2~-|
Suggest correction
Creating personal tab
Creating personal tab
You can edit any tab online and save it as your Personal.

You can edit, replace or remove any tab part or add personal notes – all changes will be seen only by you.

Personal tabs can be accessed anytime from any device, even offline.
Learn more »
Give kudos to tab author, rate the tab!
1 2 3 4 5
comments
print report bad tab
guest
You may want to rate the tab now too:
select rating
Wanna post a correction for this tab? Suggest correction