Oops, an error
Loading. Please wait.

But Its Better If You Do Tab

version 1
version 1

Whole song

Interactive

  • Added bass, drums, section markers, changed pad sounds.
17,846 views 30 this week
no commentswrite comment
1 2 3 4 5
accurate
x 6
add to favorites
launch autoscroll
font size
0
reset
how to read this tab
guitar tuner
Autoscroll
slow
fast
+/-
esc
set tempo
stop
Help us to improve Ultimate-Guitar.com Take our survey!
×
Author
Artist: Panic! At the Disco
Song: But It's Better If You Do
Tuning: Standard

Key:
. = Palm Mute
~ = Ring Out


Verse:

Piano for first 8 measures

E|--------------------------------|
B|--------------------------------|
G|55555555555555555555555555555555 x 2
D|22222222222222224444444433333333
A|--------------------------------|
E|--------------------------------|


Prechorus:

E|--------------------------------|
B|1----1-0--------1-1~------------|
G|2----2-0--------2-2~------------|
D|2----2-2--------3-3~------------|
A|0----0-2--------3-3~------------|
E|--------------------------------|


Chorus:

E|--------------------------------|
B|1-1-1-1-1-1-1-1-1-1-1-1-1-1-1-1-|
G|2-2-2-2-0-0-0-0-2-2-2-2-2-2-2-2-|
D|2-2-2-2-2-2-2-2-3-3-3-3-0-0-0-0-|
A|0-0-0-0-3-3-3-3-3-3-3-3-0-0-0-0-|
E|--------------------------------|

E|--------------------------------|
B|1-1-1-1-1-1-1-1-1-1-1-1-1-1-1-1-|
G|2-2-2-2-0-0-0-0-2-2-2-2-2-2-2-2-|
D|3-3-3-3-2-2-2-2-0-0-0-0-0-0-0-0-|
A|3-3-3-3-2-2-2-2-0-0-0-0-0-0-0-0-|
E|--------------------------------|

E|--------------------------------|
B|1-1-1-1-1-1-1-1-1-1-1-1-1-1-1-1-|
G|2-2-2-2-0-0-0-0-2-2-2-2-2-2-2-2-|
D|2-2-2-2-2-2-2-2-3-3-3-3-0-0-0-0-|
A|0-0-0-0-3-3-3-3-3-3-3-3-0-0-0-0-|
E|--------------------------------|

E|--------------------------------|
B|1-1-1-1-1-1-1-1-3-3-3-3-3-3-3-3-|
G|2-2-2-2-0-0-0-0-2-2-2-2-2-2-2-2-|
D|3-3-3-3-2-2-2-2-0-0-0-0-0-0-0-0-|
A|3-3-3-3-2-2-2-2-0-0-0-0-0-0-0-0-|
E|--------------------------------|

E|----
B|1---
G|2---
D|2---
A|0---
E|----

Verse:

E|--------------------------------|
B|--------------------------------|
G|55555555555555555555555555555555 x 2
D|22222222222222224444444433333333
A|--------------------------------|
E|--------------------------------|

Chorus:

E|--------------------------------|
B|1-1-1-1-1-1-1-1-1-1-1-1-1-1-1-1-|
G|2-2-2-2-0-0-0-0-2-2-2-2-2-2-2-2-|
D|2-2-2-2-2-2-2-2-3-3-3-3-0-0-0-0-|
A|0-0-0-0-3-3-3-3-3-3-3-3-0-0-0-0-|
E|--------------------------------|

E|--------------------------------|
B|1-1-1-1-1-1-1-1-1-1-1-1-1-1-1-1-|
G|2-2-2-2-0-0-0-0-2-2-2-2-2-2-2-2-|
D|3-3-3-3-2-2-2-2-0-0-0-0-0-0-0-0-|
A|3-3-3-3-2-2-2-2-0-0-0-0-0-0-0-0-|
E|--------------------------------|

E|--------------------------------|
B|1-1-1-1-1-1-1-1-1-1-1-1-1-1-1-1-|
G|2-2-2-2-0-0-0-0-2-2-2-2-2-2-2-2-|
D|2-2-2-2-2-2-2-2-3-3-3-3-0-0-0-0-|
A|0-0-0-0-3-3-3-3-3-3-3-3-0-0-0-0-|
E|--------------------------------|

E|--------------------------------|
B|1-1-1-1-0-0-0-0-3-3-3-3-3-3-3-3-|
G|2-2-2-2-0-0-0-0-2-2-2-2-2-2-2-2-|
D|3-3-3-3-2-2-2-2-0-0-0-0-0-0-0-0-|
A|3-3-3-3-2-2-2-2-0-0-0-0-0-0-0-0-|
E|--------------------------------|

E|----
B|1---
G|2---
D|2---
A|0---
E|----


Bridge:

E|--------------------------------|
B|1-1-1-1-1-1-1-1-1---------------|
G|2-2-2-2-2-2-2-2-2---------------|
D|2-2-2-2-2-2-2-2-2---------------|
A|0-0-0-0-0-0-0-0-0---------------|
E|--------------------------------|

E|--------------------------------|
B|1-1-1-1-1-1-1-1-1-1-1-1-1-1-1-1-|
G|2-2-2-2-2-2-2-2-2-2-2-2-2-2-2-2-|  x 5
D|2-2-2-2-2-2-2-2-4-4-4-4-3-3-3-3-|
A|0-0-0-0-0-0-0-0-0-0-0-0-0-0-0-0-|
E|--------------------------------|

E|--------------------------------|
B|1-1-1-1-1-1-1-1-1---------------|
G|2-2-2-2-2-2-2-2-2---------------|
D|2-2-2-2-2-2-2-2-4---------------|
A|0-0-0-0-0-0-0-0-0---------------|
E|--------------------------------|

E|--------------------------------|
B|1-1-1-1-1-1-1-1-1-1-1-1-1-1-1-1-|
G|2-2-2-2-0-0-0-0-2-2-2-2-2-2-2-2-|
D|2-2-2-2-2-2-2-2-3-3-3-3-0-0-0-0-|
A|0-0-0-0-3-3-3-3-3-3-3-3-0-0-0-0-|
E|--------------------------------|

E|--------------------------------|
B|1-1-1-1-1-1-1-1-1-1-1-1-1-1-1-1-|
G|2-2-2-2-0-0-0-0-2-2-2-2-2-2-2-2-|
D|3-3-3-3-2-2-2-2-0-0-0-0-0-0-0-0-|
A|3-3-3-3-2-2-2-2-0-0-0-0-0-0-0-0-|
E|--------------------------------|


Chorus:

E|--------------------------------|
B|1-1-1-1-1-1-1-1-1-1-1-1-1-1-1-1-|
G|2-2-2-2-0-0-0-0-2-2-2-2-2-2-2-2-|
D|2-2-2-2-2-2-2-2-3-3-3-3-0-0-0-0-|
A|0-0-0-0-3-3-3-3-3-3-3-3-0-0-0-0-|
E|--------------------------------|

E|--------------------------------|
B|1-1-1-1-0-0-0-0-3-3-3-3-3-3-3-3-|
G|2-2-2-2-0-0-0-0-2-2-2-2-2-2-2-2-|
D|3-3-3-3-2-2-2-2-0-0-0-0-0-0-0-0-|
A|3-3-3-3-2-2-2-2-0-0-0-0-0-0-0-0-|
E|--------------------------------|

E|--------------------------------|
B|3-3-3-3-3-3-3-3-3-3-3-3-3-3-3-3-|
G|2-2-2-2-2-2-2-2-2-2-2-2-2-2-2-2-|
D|0-0-0-0-0-0-0-0-0-0-0-0-0-0-0-0-|
A|0-0-0-0-0-0-0-0-0-0-0-0-0-0-0-0-|
E|--------------------------------|

E|----
B|1~--
G|2~--
D|2~--
A|0~--
E|----


Outro:

Synth for 16 measures

E|------------------------|
B|--------------3-3---1-1-|
G|--5-5---5-5--5-----4----|  x 4
D|-2-----2----4-----3-----|
A|0-----0-----------------|
E|------------------------|
Suggest correction
comments
print report bad tab
guest
You may want to rate the tab now too:
select rating
Wanna post a correction for this tab? Suggest correction