Oops, an error
Loading. Please wait.

Collar Full Bass Tab

version 1
version 1

Whole song

Interactive

163 views 36 this week
no commentswrite comment
1 2 3 4 5
x 3
add to favorites
launch autoscroll
font size
0
reset
guitar tuner
Autoscroll
slow
fast
+/-
esc
set tempo
stop
Help us to improve Ultimate-Guitar.com Take our survey!
×
Author
Difficulty
novice
Check out a play-through of the tab here: https://www.youtube.com/watch?v=fczc388FNsg

Bass comes in at 0:16
Verse 1:
G|----------------------------------------------------------------------------------------------------------|
D|----------------------------------------------------------------------------------------------------------|
A|--------------------------5--5-5--5-5-----------------------------------------5--5-5--5-5-----------------|
E|3--3-3--3-3--5--5-5--5-5---------------7--7-7--7-7--3--3-3--3-3--5--5-5--5-5---------------7--7-7--7-7/12\|

G|----------------------------------------------------------------|
D|----------------------------------------------------------------|
A|--------------------------------5-5-5-5-5-5-5-5-----------------| x2
E|3-3-3-3-3-3-3-3-5-5-5-5-5-5-5-5-----------------7-7-7-7-7-7-7-7-|

Pre-Chorus 1:
G|---------/7~\---------------|
D|----------------------------|
A|----------------------------|
E|--------------------x-x-x-x-|

Chorus 1:
G|----------------------------------------------------------------|
D|----------------------------------------------------------------|
A|--------------------------------5-5-5-5-5-5-5-5-----------------| x4
E|3-3-3-3-3-3-3-3-5-5-5-5-5-5-5-5-----------------7-7-7-7-7-7-7-7-|

After Chorus 1:
G|----------------------------------------------------------------|
D|----------------------------------------------------------------|
A|--------------------------------5-5-5-5-5-5-5-5-----------------| x2
E|3-3-3-3-3-3-3-3-5-5-5-5-5-5-5-5-----------------7-7-7-7-7-7-7-7-|

Verse 2:
G|--------------------------------------------|
D|----------12---9-------------12---9--11--12-|
A|10---12------------10---12------------------|
E|--------------------------------------------|

G|----------------------------------------------------------------|
D|----------------------------------------------------------------|
A|--------------------------------5-5-5-5-5-5-5-5-----------------| x2
E|3-3-3-3-3-3-3-3-5-5-5-5-5-5-5-5-----------------7-7-7-7-7-7-7-7-|

Pre-Chorus 2:
G|--------------------|
D|--------------------|
A|--------------------|
E|----------------14/-|

Chorus 2:
G|----------------------------------------------------------------|
D|----------------------------------------------------------------|
A|--------------------------------5-5-5-5-5-5-5-5-----------------| x4
E|3-3-3-3-3-3-3-3-5-5-5-5-5-5-5-5-----------------7-7-7-7-7-7-7-7-|

After Chorus 2:
G|----------------------------------------------------------------|
D|----------------------------------------------------------------|
A|--------------------------------5-5-5-5-5-5-5-5-----------------| x2
E|3-3-3-3-3-3-3-3-5-5-5-5-5-5-5-5-----------------7-7-7-7-7-7-7-7-|

G|----------------------------------------|
D|----------------------------------------|
A|--------------------------5-5-5---------|
E|--------3-3-3-7-7-7-5-5-5-------7-7-7-3-|

Pre-Chorus 3:
G|-----------------------------------------------------------------|
D|------------------------------------------------9-9-9-9-9-9-9----|
A|--------------------------------5-5-5-5-5-5-5-5------------------| 
E|3-3-3-3-3-3-3-3-5-5-5-5-5-5-5-5-------------------------------7/-|

Chorus 3:
G|----------------------------------------------------------------|
D|----------------------------------------------------------------|
A|--------------------------------5-5-5-5-5-5-5-5-----------------| x4
E|3-3-3-3-3-3-3-3-5-5-5-5-5-5-5-5-----------------7-7-7-7-7-7-7-7-|

G|---------------------------------|
D|---------------------------------|
A|------------------5-5-5----------|
E|3-3-3-7-7-7-5-5-5-------7-7-7-3\-|

*********************************** 
| / Slide up 
| \ Slide down  
| ~ Sustain
| x Dead note 
***********************************
Suggest correction
Give kudos to tab author, rate the tab!
1 2 3 4 5
comments
print report bad tab
guest
You may want to rate the tab now too:
select rating
Wanna post a correction for this tab? Suggest correction