Oops, an error
Loading. Please wait.
We have an official Collar Full tab made by UG professional guitarists. Check out the tab »
×
3,941 views 36 this week
1 commentread comment
1 2 3 4 5
x 6
add to favorites
×
Save as Personal and add changes to this tab that will be seen only by you. Learn more ›
×
You can save this tab as Personal to edit and correct it or add notes. All changes will be seen only by you. Learn more »
launch autoscroll
font size
0
reset
how to read this tab
guitar tuner
edit
Autoscroll
slow
fast
+/-
esc
set tempo
stop
Author
Difficulty
Collar Full by Panic! At The Disco

Tuning: standard, no capo

Tabbed by jcameronp

/ = slide up

Chords for chorus can be played as normal chords or with these power chords:

G

e|---
e|---
B|---
G|---
D|-5-
A|-5-
E|-3-

A

B|---
G|---
D|-7-
A|-7-
E|-5-

D


e|---
B|---
G|-7-
D|-7-
A|-5-
E|---

Bm


e|---
B|---
G|-4-
D|-4-
A|-2-
E|---

-

This is my first full song tab so there may be mistakes.
Chords for the chorus were found here: http://tabs.ultimate-guitar.com/p/panic_at_the_disco/collar_full_crd.htm

-

Intro:

e|---------------------------------------------------------------------------|
B|-10----14--------7---10--7-------------------------------------------------|
G|----11----14--9----7-------2-----------------------------------------------| 
D|---------------------------------------------------------------------------|
A|---------------------------------------------------------------------------|
E|---------------------------------------------------------------------------|

Play that 2 times through

Strumming in background of intro:

e|---------------------------------------------------------------------------|
B|---------------------------------------------------------------------------|
G|-444444666666222222777777--------------------------------------------------|
D|---------------------------------------------------------------------------|
A|---------------------------------------------------------------------------|
E|---------------------------------------------------------------------------|

Play that 2 times through as well with the intro and then continue playing that
until about :40 seconds. Then there's a few seconds of silence and this comes in
at about :44 or :45 seconds:

e|---------------------------------------------------------------------------|
B|---------------------------------------------------------------------------|
G|---------------------------------------------------------------------------|
D|-7/12-12-12-12-12-12-12-12-------------------------------------------------|
A|---------------------------------------------------------------------------|
E|---------------------------------------------------------------------------|

I can't figure out the first part of the chorus so here's the chords:
(if you want to play the intro's background notes during the chorus it sounds fine too)


              G          A
Show me your love, your love

        D                Bm
Gimme more but it's not enough

              G           A
Show me your love, your love

            D            Bm
Before the world catches up

              G               A             D              Bm
Cuz there's always time for second guesses, I don't wanna know

            G            A                  D             Bm
If you're gonna be the death of me, that's how I wanna go


(I got these here: http://tabs.ultimate-guitar.com/p/panic_at_the_disco/collar_full_crd.htm)

Right after chorus, replay the intro:

e|---------------------------------------------------------------------------|
B|-10----14--------7---10--7-------------------------------------------------|
G|----11----14--9----7-------2-----------------------------------------------| 
D|---------------------------------------------------------------------------|
A|---------------------------------------------------------------------------|
E|---------------------------------------------------------------------------|

(and the background notes in intro)

e|---------------------------------------------------------------------------|
B|---------------------------------------------------------------------------|
G|-444444666666222222777777--------------------------------------------------|
D|---------------------------------------------------------------------------|
A|---------------------------------------------------------------------------|
E|---------------------------------------------------------------------------|

twice, and then continue playing the background notes until 1:47, then there is no
guitar until the chorus:

  
              G          A
Show me your love, your love

        D                Bm
Gimme more but it's not enough

              G           A
Show me your love, your love

            D            Bm
Before the world catches up

              G               A             D              Bm
Cuz there's always time for second guesses, I don't wanna know

            G            A                  D             Bm
If you're gonna be the death of me, that's how I wanna go

G      A            D        Bm  
Ooooooooh Ooooooooooooh          X2


OR you can just play through the background of the intro, it sounds fine. Listen to the song
to figure out when the note changes.
(background of the intro tab)
e|---------------------------------------------------------------------------|
B|---------------------------------------------------------------------------|
G|-444444666666222222777777--------------------------------------------------|
D|---------------------------------------------------------------------------|
A|---------------------------------------------------------------------------|
E|---------------------------------------------------------------------------|

then right after the chorus this guitar comes in: (not sure about the part on the G string)

e|---------------------------------------------------------------------------|
B|-15-15-10-10-5/7-10--------------------------------------------------------|
G|--------------------5-5-5-12-12-12-11--------------------------------------|
D|---------------------------------------------------------------------------|
A|---------------------------------------------------------------------------|
E|---------------------------------------------------------------------------|

then right after that: (not completely sure about the last 10-10-8 or the 9-9-7 but it sounds
alright.

e|---------------------------------------------------------------------------|
B|---------------------------------------------------------------------------|
G|---------------------------------------------------------------------------|
D|-5-5-5-9-9-9-7-7-7-12-12-12-10-9-9-----------------------------------------|
A|-5-5-5-9-9-9-7-7-7-12-12-12-10-9-9-----------------------------------------|
E|-3-3-3-7-7-7-5-5-5-10-10-10-8--7-7-----------------------------------------|

the piano with just vocals:

e|---------------------------------------------------------------------------|
B|---------------------------------------------------------------------------|
G|-11--------14-------19-------16--------------------------------------------|
D|---------------------------------------------------------------------------|
A|---------------------------------------------------------------------------|
E|---------------------------------------------------------------------------|


Then the chorus comes in again:


              G           A
Show me your love, your love

            D            Bm
Before the world catches up

              G          A
Show me your love, your love

        D                Bm
Gimme more but it's not enough

              G           A
Show me your love, your love

            D            Bm
Before the world catches up

G      A            D        Bm  
Ooooooooh Ooooooooooooh (Show me your love)         X2


Again, you can just play through the background of the intro.
(background of the intro tab)
e|---------------------------------------------------------------------------|
B|---------------------------------------------------------------------------|
G|-444444666666222222777777--------------------------------------------------|
D|---------------------------------------------------------------------------|
A|---------------------------------------------------------------------------|
E|---------------------------------------------------------------------------|

Then this is played again:

e|---------------------------------------------------------------------------|
B|---------------------------------------------------------------------------|
G|---------------------------------------------------------------------------|
D|-5-5-5-9-9-9-7-7-7-12-12-12-10-9-9-----------------------------------------|
A|-5-5-5-9-9-9-7-7-7-12-12-12-10-9-9-----------------------------------------|
E|-3-3-3-7-7-7-5-5-5-10-10-10-8--7-7-----------------------------------------|

and that's the end.

Suggest correction
Creating personal tab
Creating personal tab
You can edit any tab online and save it as your Personal.

You can edit, replace or remove any tab part or add personal notes – all changes will be seen only by you.

Personal tabs can be accessed anytime from any device, even offline.
Learn more »
comments
print report bad tab
1 comment total.
0 reply
jailynn112 10 May 05, 2017 07:37 AM

This was awesome! Although you were right about the last 10-10-8 and 9-9-7 for the end and bridge. I think it jumps back to 9-9-7 and 7-7-5. This was a really helpful page, though! Thanks!

guest
You may want to rate the tab now too:
select rating
Wanna post a correction for this tab? Suggest correction