Oops, an error
Loading. Please wait.
We have an official Collar Full tab made by UG professional guitarists. Check out the tab »
×
1,347 views 15 this week
1 commentread comment
1 2 3 4 5
x 3
add to favorites
×
Save as Personal and add changes to this tab that will be seen only by you. Learn more ›
×
You can save this tab as Personal to edit and correct it or add notes. All changes will be seen only by you. Learn more »
launch autoscroll
font size
0
reset
how to read this tab
guitar tuner
edit
Autoscroll
slow
fast
+/-
esc
set tempo
stop
-------------------------------------------------------------------------------
                             Collar Full - Panic! At The Disco
-------------------------------------------------------------------------------
Tabbed by: Tristan Harris
YouTube Channel: https://www.youtube.com/channel/UCeYc5zcagrMBpinpS8YFUAg

If you want to see this tab performed, here's a link to my cover: https://www.youtube.com/watch?v=GuOuh3vMXA4

Tuning: Drop D

~ ~ ~ Intro (0:06 - 0:16) ~ ~ ~

Lead [2x]
e|------------9--------------------------------------------------------------|
B|----10---------10---------------10-----------------------------------------|
G|--------11---------9----11----------11-------------------------------------|
D|----------------------------12----------12---------------------------------|
A|---------------------------------------------------------------------------|
D|---------------------------------------------------------------------------|

~ ~ ~ Verse (0:16 - 0:40) ~ ~ ~

Rhythm [4x]
e|---------------------------------------------------------------------------|
B|---------------------------------------------------------------------------|
G|---------------------------------------------------------------------------|
D|----5-5-5-5-5-5-5-5-7-7-7-7-7-7-7-7-0-0-0-0-0-0-0-0-9-9-9-9-9-9-9-9-5------| (The very last 5 is ONLY played
A|----5-5-5-5-5-5-5-5-7-7-7-7-7-7-7-7-0-0-0-0-0-0-0-0-9-9-9-9-9-9-9-9-5------|  after repeating everything else
D|----5-5-5-5-5-5-5-5-7-7-7-7-7-7-7-7-0-0-0-0-0-0-0-0-9-9-9-9-9-9-9-9-5------|  4 times, this note ends the
      x x x x x x x x x x x x x x x x x x x x x x x x x x x x x x x x           verse)

~ ~ ~ Chorus (0:51 - 1:14) ~ ~ ~

Rhythm [4x]
e|---------------------------------------------------------------------------|
B|---------------------------------------------------------------------------|
G|---------------------------------------------------------------------------|
D|----5-5-5-5-5-5-5-5-7-7-7-7-7-7-7-7-0-0-0-0-0-0-0-0-9-9-9-9-9-9-9-9--------|
A|----5-5-5-5-5-5-5-5-7-7-7-7-7-7-7-7-0-0-0-0-0-0-0-0-9-9-9-9-9-9-9-9--------|
D|----5-5-5-5-5-5-5-5-7-7-7-7-7-7-7-7-0-0-0-0-0-0-0-0-9-9-9-9-9-9-9-9--------|

Lead (1:02 - 1:14) [2x]
e|---------------------------------------------------------------------------|
B|---------------------------------------------------------------------------|
G|----12--11--9--------------9--11--12--11--9--------------------------------|
D|---------------12--11--12--------------------12--11--9--7--9---------------|
A|---------------------------------------------------------------------------|
D|---------------------------------------------------------------------------|

~ ~ ~ Intro (1:14 - 1:24) ~ ~ ~

Rhythm [2x]
e|---------------------------------------------------------------------------|
B|---------------------------------------------------------------------------|
G|---------------------------------------------------------------------------|
D|----5-5-5-5-5-5-5-5-7-7-7-7-7-7-7-7-0-0-0-0-0-0-0-0-9-9-9-9-9-9-9-9--------|
A|----5-5-5-5-5-5-5-5-7-7-7-7-7-7-7-7-0-0-0-0-0-0-0-0-9-9-9-9-9-9-9-9--------|
D|----5-5-5-5-5-5-5-5-7-7-7-7-7-7-7-7-0-0-0-0-0-0-0-0-9-9-9-9-9-9-9-9--------|
      x x x x x x x x x x x x x x x x x x x x x x x x x x x x x x x x

Lead [2x]
e|------------9--------------------------------------------------------------|
B|----10---------10---------------10-----------------------------------------|
G|--------11---------9----11----------11-------------------------------------|
D|----------------------------12----------12---------------------------------|
A|---------------------------------------------------------------------------|
D|---------------------------------------------------------------------------|

~ ~ ~ Verse (1:24 - 1:47) ~ ~ ~

Rhythm [4x]
e|---------------------------------------------------------------------------|
B|---------------------------------------------------------------------------|
G|---------------------------------------------------------------------------|
D|----5-5-5-5-5-5-5-5-7-7-7-7-7-7-7-7-0-0-0-0-0-0-0-0-9-9-9-9-9-9-9-9-5------| (The very last 5 is ONLY played
A|----5-5-5-5-5-5-5-5-7-7-7-7-7-7-7-7-0-0-0-0-0-0-0-0-9-9-9-9-9-9-9-9-5------|  after repeating everything else
D|----5-5-5-5-5-5-5-5-7-7-7-7-7-7-7-7-0-0-0-0-0-0-0-0-9-9-9-9-9-9-9-9-5------|  4 times, this note ends the
      x x x x x x x x x x x x x x x x x x x x x x x x x x x x x x x x           verse)

~ ~ ~ Chorus (1:58 - 2:21) ~ ~ ~

Rhythm [4x]
e|---------------------------------------------------------------------------|
B|---------------------------------------------------------------------------|
G|---------------------------------------------------------------------------|
D|----5-5-5-5-5-5-5-5-7-7-7-7-7-7-7-7-0-0-0-0-0-0-0-0-9-9-9-9-9-9-9-9--------|
A|----5-5-5-5-5-5-5-5-7-7-7-7-7-7-7-7-0-0-0-0-0-0-0-0-9-9-9-9-9-9-9-9--------|
D|----5-5-5-5-5-5-5-5-7-7-7-7-7-7-7-7-0-0-0-0-0-0-0-0-9-9-9-9-9-9-9-9--------|

Lead (2:10 - 2:21) [2x]
e|---------------------------------------------------------------------------|
B|---------------------------------------------------------------------------|
G|----12--11--9--------------9--11--12--11--9--------------------------------|
D|---------------12--11--12--------------------12--11--9--7--9---------------|
A|---------------------------------------------------------------------------|
D|---------------------------------------------------------------------------|

~ ~ ~ Post Chorus (2:21 - 2:38) ~ ~ ~

Rhythm
e|---------------------------------------------------------------------------|
B|---------------------------------------------------------------------------|
G|---------------------------------------------------------------------------|
D|----5-5-5-5-5-5-5-5-7-7-7-7-7-7-7-7-0-0-0-0-0-0-0-0-9-9-9-9-9-9-9-9--------|  [2x]
A|----5-5-5-5-5-5-5-5-7-7-7-7-7-7-7-7-0-0-0-0-0-0-0-0-9-9-9-9-9-9-9-9--------|
D|----5-5-5-5-5-5-5-5-7-7-7-7-7-7-7-7-0-0-0-0-0-0-0-0-9-9-9-9-9-9-9-9--------|

e|---------------------------------------------------------------------------|
B|---------------------------------------------------------------------------|
G|---------------------------------------------------------------------------|
D|------------------------------------5-5-5-9-9-9-7-7-7-12-12-12-9-9-7-7-----|
A|------------------------------------5-5-5-9-9-9-7-7-7-12-12-12-9-9-7-7-----|
D|------------------------------------5-5-5-9-9-9-7-7-7-12-12-12-9-9-7-7-----|

Lead
e|---------------------------------------------------------------------------|
B|---------------------------------------------------------------------------|
G|----16-16-16-16-16-16-16-16-14-14-14-14-14-14-14-14------------------------|  [4x]
D|---------------------------------------------------------------------------|
A|---------------------------------------------------------------------------|
D|---------------------------------------------------------------------------|

e|---------------------------------------------------------------------------|
B|---------------------------------------------------------------------------|
G|----16-16-16-14-14-14------------------------------------------------------|
D|----------------------14-14-14-16-16-16-14-14-12-12------------------------|
A|---------------------------------------------------------------------------|
D|---------------------------------------------------------------------------|

~ ~ ~ Pre-Chorus (2:44 - 2:49) ~ ~ ~

Rhythm

e|---------------------------------------------------------------------------|
B|---------------------------------------------------------------------------|
G|---------------------------------------------------------------------------|
D|----5-5-5-5-5-5-5-5-7-7-7-7-7-7-7-7-0-0-0-0-0-0-0-0-9-9-9-9-9-9-9-9--------|
A|----5-5-5-5-5-5-5-5-7-7-7-7-7-7-7-7-0-0-0-0-0-0-0-0-9-9-9-9-9-9-9-9--------|
D|----5-5-5-5-5-5-5-5-7-7-7-7-7-7-7-7-0-0-0-0-0-0-0-0-9-9-9-9-9-9-9-9--------|
      x x x x x x x x x x x x x x x x x x x x x x x x x x x x x x x x

~ ~ ~ Chorus (2:49 - 3:12) ~ ~ ~

Rhythm [4x]

e|---------------------------------------------------------------------------|
B|---------------------------------------------------------------------------|
G|---------------------------------------------------------------------------|
D|----5-5-5-5-5-5-5-5-7-7-7-7-7-7-7-7-0-0-0-0-0-0-0-0-9-9-9-9-9-9-9-9--------|
A|----5-5-5-5-5-5-5-5-7-7-7-7-7-7-7-7-0-0-0-0-0-0-0-0-9-9-9-9-9-9-9-9--------|
D|----5-5-5-5-5-5-5-5-7-7-7-7-7-7-7-7-0-0-0-0-0-0-0-0-9-9-9-9-9-9-9-9--------|

Lead (3:01 - 3:12) [2x]
e|---------------------------------------------------------------------------|
B|---------------------------------------------------------------------------|
G|----12--11--9--------------9--11--12--11--9--------------------------------|
D|---------------12--11--12--------------------12--11--9--7--9---------------|
A|---------------------------------------------------------------------------|
D|---------------------------------------------------------------------------|

~ ~ ~ Outro (3:12 - 3:15) ~ ~ ~

Rhythm

e|---------------------------------------------------------------------------|
B|---------------------------------------------------------------------------|
G|---------------------------------------------------------------------------|
D|----5-5-5-9-9-9-7-7-7-12-12-12-9-9-7-7-------------------------------------|
A|----5-5-5-9-9-9-7-7-7-12-12-12-9-9-7-7-------------------------------------|
D|----5-5-5-9-9-9-7-7-7-12-12-12-9-9-7-7-------------------------------------|

************************************

| x   Mute note

************************************
Suggest correction
Creating personal tab
Creating personal tab
You can edit any tab online and save it as your Personal.

You can edit, replace or remove any tab part or add personal notes – all changes will be seen only by you.

Personal tabs can be accessed anytime from any device, even offline.
Learn more »
Give kudos to tab author, rate the tab!
1 2 3 4 5
comments
print report bad tab
1 comment total.
0 reply
ejredus 10 Aug 12, 2015 09:20 AM

I would just change that last note of the intro on the lead guitar to 12 on the A string (both times)

Thanks for the helpful tab!

guest
You may want to rate the tab now too:
select rating
Wanna post a correction for this tab? Suggest correction