Oops, an error
Loading. Please wait.

Crazygenius bass

1,252 views 36 this week
3 commentsread comments
1 2 3 4 5
x 5
add to favorites
×
Save as Personal and add changes to this tab that will be seen only by you. Learn more ›
×
You can save this tab as Personal to edit and correct it or add notes. All changes will be seen only by you. Learn more »
launch autoscroll
font size
0
reset
guitar tuner
edit
Autoscroll
slow
fast
+/-
esc
set tempo
stop
-----------------------------------------------------------------
Crazy=Genius - Panic! At The Disco
-----------------------------------------------------------------

Tabbed By : Chandler F.
e-mail: chanf742@gmail.com

Tuning: Drop D (DADG)

[Intro]
No Bass

[Verse]
G|----2-------2---|----------------|
D|0-3---3-0-3---3-|--0-3-0-----2---| x3
A|----------------|1-------0-4---4-|
D|----------------|----------------|

G|---------|---------|
D|---------|---------|
A|1-0------|---------|
D|-----5-3-|-2-3-2-0-|

[Pre-Chorus]
No Bass

[Chorus]
G|---------------|---------------|---------------|---------------|
D|---------------|---------------|---------------|---------------| x2
A|---------------|---------------|1-1-1-1-1-1-1-1|0-0-0-0-0-0-0-0|
D|0-0-0-0-0-0-0-0|3-3-3-3-3-3-3-3|---------------|---------------|

G|--------|----------|
D|--------|----------| x4
A|5----3--|--1----0--|
D|--------|----------|

After-chorus: 
No Bass

[Verse]
G|----2-------2---|----------------|
D|0-3---3-0-3---3-|--0-3-0-----2---| x3
A|----------------|1-------0-4---4-|
D|----------------|----------------|

G|---------|---------|
D|---------|---------|
A|1-0------|---------|
D|-----5-3-|-2-3-2-0-|

[Pre-Chorus]
No Bass

[Chorus]
G|---------------|---------------|---------------|---------------|
D|---------------|---------------|---------------|---------------| x2
A|---------------|---------------|1-1-1-1-1-1-1-1|0-0-0-0-0-0-0-0|
D|0-0-0-0-0-0-0-0|3-3-3-3-3-3-3-3|---------------|---------------|

G|--------|----------|
D|--------|----------| x4
A|5----3--|--1----0--|
D|--------|----------|

[Bridge]
No Bass

[Chorus]
G|---------------|---------------|---------------|---------------|
D|---------------|---------------|---------------|---------------| x2
A|---------------|---------------|1-1-1-1-1-1-1-1|0-0-0-0-0-0-0-0|
D|0-0-0-0-0-0-0-0|3-3-3-3-3-3-3-3|---------------|---------------|


G|--------|----------|
D|--------|----------| x4
A|5----3--|--1----0--|
D|--------|----------|

[Ending]
G|-----|
D|-----|
A|-----|
D|--0--|

            
            
Suggest correction
Creating personal tab
Creating personal tab
You can edit any tab online and save it as your Personal.

You can edit, replace or remove any tab part or add personal notes – all changes will be seen only by you.

Personal tabs can be accessed anytime from any device, even offline.
Learn more »
comments
print report bad tab
3 comments total.
0 reply
deathandglitter 71 Feb 18, 2017 08:38 PM

this tab is awesome, thank you for finally making one!! i've been trying to figure this out for a year now hahaha

0 reply
saga.ekstrand 32 Mar 06, 2017 01:21 PM

great tab!

0 reply
aadila.abdul12345 10 Sep 03, 2017 01:14 AM

Sounds great man!!

guest
You may want to rate the tab now too:
select rating
Wanna post a correction for this tab? Suggest correction