Oops, an error
Loading. Please wait.

Death Of A Bachelor bass

version 1
version 1

Whole song

12,067 views 75 this week
2 commentsread comments
1 2 3 4 5
x 11
add to favorites
×
Save as Personal and add changes to this tab that will be seen only by you. Learn more ›
×
You can save this tab as Personal to edit and correct it or add notes. All changes will be seen only by you. Learn more »
launch autoscroll
font size
0
reset
guitar tuner
edit
Autoscroll
slow
fast
+/-
esc
set tempo
stop
Author
Difficulty
intermediate
Death Of A Bachelor - Panic! At The Disco
Tabbed by: nten17
Tuning:EADG

[Verse 1]
G|-----------------------|
D|-----------------------|
A|-----------------------|
E|--8--7--5--------------|
Do I look…

G|----------------------------------------------------------|
D|----------------------------------------------------------|   x5
A|------5----------------------3-----------2--0-------------|
E|-----------------3----------------------------------------|
…lonely?
I see the shadows on my face…

[Bridge]
G|--------------------------------------------------------|
D|-------------------------5------------------------------|
A|--5-------6---------------------------------------------|
E|--------------------------------------------------------|
The lace in your dress
Tangles my neck
How do I live?

[Chorus]
G|---------------------------------------------------------------------|
D|---7---5-----7-------------------------------------------------------|
A|----------7------7-----5----------5-7-------7--5---------------------|
E|--------------------------------8--------------------8---------------|
The death of a bachelor
Oh, oh, oh!
Letting the water fall

G|--------------------------------------------------------------------|
D|---7---5---7-----------------------------7--5-5-7-------------------|
A|---------7----7---5----------5-7------------------5-----------------|
E|---------------------------8------------------------8---------------|
The death of a bachelor
Oh, oh, oh!
Seems so fitting for

G|------------------5-------9-------9--7--5--7--5-5--------------------|
D|---7---5---5-7------7------------------------------------------------|
A|---------------------------------------------------------------------|
E|---------------------------------------------------------------------|
Happy ever after, ooo!
How can I ask for more?

G|-------------------------------------------------------------------------|
D|---7--5------7-----------------------------------------------------------|
A|---------7-------7--5------5--7--5--------------5--7--5------------------|
E|-----------------------8--------------8--5--8--------------8-8-----------|
Lifetime of laughter
At the expense
Of the death of a bachelor.

[Verse 2]
G|---------------------------------------------------------------|
D|---------------------------------------------------------------|
A|---------------------------------------------------------------|
E|--8--7--5-----------------------------------------------------|
I’m cutting my…

G|----------------------------------------------------------|
D|----------------------------------------------------------|   x5
A|------5----------------------3-----------2--0-------------|
E|-----------------3----------------------------------------|
…mind off
It feels like my heart is going to burst…

[Bridge]
G|----------------------------------------------------|
D|---------------------5------------------------------|
A|--5-------6-----------------------------------------|
E|----------------------------------------------------|
The lace in your dress
Tangles my neck
How do I live?

[Chorus]
G|---------------------------------------------------------------------|
D|---7---5-----7-------------------------------------------------------|
A|----------7------7-----5----------5-7-------7--5---------------------|
E|--------------------------------8--------------------8---------------|
The death of a bachelor
Oh, oh, oh!
Letting the water fall

G|--------------------------------------------------------------------|
D|---7---5---7-----------------------------7--5-5-7-------------------|
A|---------7----7---5----------5-7------------------5-----------------|
E|---------------------------8------------------------8---------------|
The death of a bachelor
Oh, oh, oh!
Seems so fitting for

G|------------------5-------9-------9--7--5--7--5-5--------------------|
D|---7---5---5-7------7------------------------------------------------|
A|---------------------------------------------------------------------|
E|---------------------------------------------------------------------|
Happy ever after, ooo!
How can I ask for more?

G|-------------------------------------------------------------------------|
D|---7--5------7-----------------------------------------------------------|
A|---------7-------7--5------5--7--5--------------5--7--5------------------|
E|-----------------------8--------------8--5--8--------------8-8-----------|
Lifetime of laughter
At the expense
Of the death of a bachelor.

[Instrumental break]
G|---------0--------------------------------------------------------|
D|----222----000--2----------0--------------------------------------|    x4
A|-----------------------333------230---0----023223-----------------|
E|------------------------------------3-----------------------------|

[Chorus]
G|---------------------------------------------------------------------|
D|---7---5-----7-------------------------------------------------------|
A|----------7------7-----5----------5-7-------7--5---------------------|
E|--------------------------------8--------------------8---------------|
The death of a bachelor
Oh, oh, oh!
Letting the water fall

G|--------------------------------------------------------------------|
D|---7---5---7-----------------------------7--5-5-7-------------------|
A|---------7----7---5----------5-7------------------5-----------------|
E|---------------------------8------------------------8---------------|
The death of a bachelor
Oh, oh, oh!
Seems so fitting for

G|------------------5-------9-------9--7--5--7--5-5--------------------|
D|---7---5---5-7------7------------------------------------------------|
A|---------------------------------------------------------------------|
E|---------------------------------------------------------------------|
Happy ever after, ooo!
How can I ask for more?

G|-------------------------------------------------------------------------|
D|---7--5------7-----------------------------------------------------------|
A|---------7-------7--5------5--7--5--------------5--7--5------------------|
E|-----------------------8--------------8--5--8--------------8-8-----------|
Lifetime of laughter
At the expense
Of the death of a bachelor.

            
            
Suggest correction
Creating personal tab
Creating personal tab
You can edit any tab online and save it as your Personal.

You can edit, replace or remove any tab part or add personal notes – all changes will be seen only by you.

Personal tabs can be accessed anytime from any device, even offline.
Learn more »
comments
print report bad tab
2 comments total.
+1 reply
seannmmcculloch 210 Feb 06, 2016 12:28 PM

The bass tabs do not represent the right timing or octaves of the notes. This is consistent throughout the tab.

0 reply
lisahogrelius 160 Mar 07, 2016 09:26 AM

It's difficult to see when to play the notes, and it doesn't show that you play the notes multiple times. For instance it says only one 5 when it should be 5--5--5-5-5-5. The notes all sound correct though.

guest
You may want to rate the tab now too:
select rating
Wanna post a correction for this tab? Suggest correction