Oops, an error
Loading. Please wait.

Dont Threaten Me With A Good Time bass

version 1
version 1

Whole song

  • Tabbed from this video: https://www.youtube.com/watch?v=UiH15p8azJ4.
23,284 views 201 this week
3 commentsread comments
1 2 3 4 5
x 26
add to favorites
×
Save as Personal and add changes to this tab that will be seen only by you. Learn more ›
×
You can save this tab as Personal to edit and correct it or add notes. All changes will be seen only by you. Learn more »
launch autoscroll
font size
0
reset
guitar tuner
edit
Autoscroll
slow
fast
+/-
esc
set tempo
stop
Author
-------------------------------------------------------------------------------
             Don't Threaten Me With A Good Time - Panic! At The Disco
-------------------------------------------------------------------------------
Tabbed by: Connor Paintin
E-mail: connorpaintin@gmail.com

Tuning: Standard


[Intro]

G|----------------------6----------------------------------------------------------------|
D|-----------4--7-6-7-6---6-7-6---------7-6-7-6------------------------------------------|(x4)
A|-4--6-7--7--------------------4-7-6-4--------------------------------------------------|
E|---------------------------------------------------------------------------------------|


[Verse 1] 

(enter just before "Memories tend to just pop up...")

G|-13-11---------------------------------------------------------------------|
D|-------14-13-12--11-11-11-11--10-10-10-10--9-9-9-9--8-8-7-6 ---------------|(x2) (no intro fill on second)
A|---------------------------------------------------------------------------|
E|---------------------------------------------------------------------------|


G|----------------------6-------------------------------------------------------------|
D|-----------4--7-6-7-6---6-7-6---------7-6-7-6---------------------------------------| 
A|-4--6-7--7--------------------4-7-6-4-----------------------------------------------|
E|------------------------------------------------------------------------------------|


[Pre-Chorus]

G|---------------------------------------------------------------------------|
D|---------------------------------------------------------------------------|(x4)
A|-4-4-4-4--2-2-2-2----------------------------------------------------------|
E|-------------------5-5-5-5--7-7-7-7---(fourth time only play one 7)--------|


[Chorus]

G|----------------------6-------------------------------------------------------------|
D|-----------4--7-6-7-6---6-7-6---------7-6-7-6---------------------------------------|(x2)
A|-4--6-7--7--------------------4-7-6-4-----------------------------------------------|
E|------------------------------------------------------------------------------------|


[Verse 2]

G|-13-11---------------------------------------------------------------------|
D|-------14-13-12--11-11-11-11--10-10-10-10--9-9-9-9--8-8-7-6----------------|(x2) (no intro fill on second)
A|---------------------------------------------------------------------------|
E|---------------------------------------------------------------------------|

G|---------------------------------------------------------------------------|
D|---------------------------------------------------------------------------|(x2)
A|-4-4-4-4--3-3-3-3--2-2-2-2--1-1-0-0----------------------------------------|
E|---------------------------------------------------------------------------|


[Fill]

G|----------------------6-------------------------------------------------------------|
D|-----------4--7-6-7-6---6-7-6---------7-6-7-6---------------------------------------| 
A|-4--6-7--7--------------------4-7-6-4-----------------------------------------------|
E|------------------------------------------------------------------------------------|


[Pre-Chorus]

G|---------------------------------------------------------------------------|
D|---------------------------------------------------------------------------|(x4)
A|-4-4-4-4--2-2-2-2----------------------------------------------------------|
E|-------------------5-5-5-5--7-7-7-7---(fourth time only play one 7)--------|


[Guitar Solo]

G|----------------------6-------------------------------------------------------------|
D|-----------4--7-6-7-6---6-7-6---------7-6-7-6---------------------------------------|(x2)
A|-4--6-7--7--------------------4-7-6-4-----------------------------------------------|
E|------------------------------------------------------------------------------------|


[Bridge]

G|---------------------------------------------------------------------------|
D|------------------------------------------------6--------------------------|
A|-0--2--4--2--0--2--4--7-9-10--0--2--4--2--0--2-----------------------------|
E|---------------------------------------------------------------------------|


[Final Chorus]

G|------------------------------------------------------------------------------|
D|-6-6-6-6-6-6-(only first time for intro)--------------------------------------|(x4)
A|-----------------------------------------4-4-4-4--2-2-2-2---------------------|
E|-----------------------------------------------------------5-5-5-5--7-7-7-7---|

            
            
Suggest correction
Creating personal tab
Creating personal tab
You can edit any tab online and save it as your Personal.

You can edit, replace or remove any tab part or add personal notes – all changes will be seen only by you.

Personal tabs can be accessed anytime from any device, even offline.
Learn more »
comments
print report bad tab
3 comments total.
+17 reply
seannmmcculloch 210 Jan 31, 2016 09:02 PM

G|------------------6-------------------------------------------|
D|---------7476----6-76-----7476--------------------------------| x4
A|-4-6-7-64------------47-64------------------------------------|
E|--------------------------------------------------------------|

This is what the intro and bridges sound like to me

+1 reply
Jernimo 95 Jun 21, 2016 04:06 PM

On the 2nd time of the chorus only play 3 7's, but great job anyway

0 reply
cotygarrett08 10 Sep 20, 2017 01:17 PM

you did great

guest
You may want to rate the tab now too:
select rating
Wanna post a correction for this tab? Suggest correction