Oops, an error
Loading. Please wait.

Dont Threaten Me With A Good Time intro tab

version 1
version 1

Intro

37,459 views 357 this week
4 commentsread comments
1 2 3 4 5
x 111
add to favorites
×
Save as Personal and add changes to this tab that will be seen only by you. Learn more ›
×
You can save this tab as Personal to edit and correct it or add notes. All changes will be seen only by you. Learn more »
launch autoscroll
font size
0
reset
how to read this tab
guitar tuner
edit
Autoscroll
slow
fast
+/-
esc
set tempo
stop
Author
Difficulty
Artist: Panic! At The Disco
Song: Don't threaten me with a good time
Tabbed by: Zamo

Tuning: EADGBe

e|---------------------------------------------------------------------------|
B|---------------------------------------------------------------------------|
G|--------------------------6------------------------6-----------------------|
D|--------------7-4-7-6---6-----------------7-4-7-6--------------------------|
A|--4--6-7-6-4-----------------7-6-4-7--6-4----------------------------------|
E|---------------------------------------------------------------------------|

e|---------------------------------------------------------------------------|
B|---------------------------------------------------------------------------|
G|----------------------6----------------------------------------------------|
D|--------------7-4-7-6------------------------------------------------------|
A|--4--6-7-6-4---------------------------------------------------------------|
E|---------------------------------------------------------------------------|
Suggest correction
Creating personal tab
Creating personal tab
You can edit any tab online and save it as your Personal.

You can edit, replace or remove any tab part or add personal notes – all changes will be seen only by you.

Personal tabs can be accessed anytime from any device, even offline.
Learn more »
comments
print report bad tab
4 comments total. Showing first comments.
+4 reply
mechazillalive 10 Jun 29, 2016 12:53 PM

It's in drop D, tuned a half step down. This is an octave too high.

+1 reply
Chikatakika 32 Sep 07, 2016 01:22 PM

i rly like it

guest
You may want to rate the tab now too:
select rating
Wanna post a correction for this tab? Suggest correction