Oops, an error
Loading. Please wait.

Emperors New Clothes bass

version 1
version 1

Whole song

  • This is the tab by Alto Fox which helped me learn ... Show more

Interactive

14,407 views 108 this week
2 commentsread comments
1 2 3 4 5
x 11
add to favorites
×
Save as Personal and add changes to this tab that will be seen only by you. Learn more ›
×
You can save this tab as Personal to edit and correct it or add notes. All changes will be seen only by you. Learn more »
launch autoscroll
font size
0
reset
guitar tuner
edit
Autoscroll
slow
fast
+/-
esc
set tempo
stop
-------------------------------------------------------------------------------
                             Emperor's New Clothes - Panic! At The Disco
-------------------------------------------------------------------------------
Tabbed by: Jack Persinger
E-mail: mineturtle72@gmail.com

Tuning: Drop E flat (The E's on the scales are all E flats)

[Intro]

G|---------------------------------------------------------------------------|
D|---------------------------------------------------------------------------|
A|---------------------------------------------------------------------------|
E|------12\------------------------------------------------------------------|


[Verse 1]

G|----------------------------------------------------6/888886---------------|
D|-----------8--6-8------88888-----------8-8--6-8-------------8\-------------|
A|--6----6-6--------6--6------89--6----6-----------6-------------------------|
E|---------------------------------------------------------------------------|

G|----------------------------------------------------6/888886---------------|
D|--9-9-9-9-8-8-8-8-6-6-6-6-4-4-4-4----------8--6-8------------8\------------|
A|---------------------------------6----6-6--------6-------------------------|
E|---------------------------------------------------------------------------|


[Chorus 1]

G|---------------------------------------------------------------------------|
D|---------------------------------------------------------------------------|
A|--2-2-2-2-2-2-2-2----------------------------------------------------------|
E|-------------------5-5-5-5-5-5-5-5-0----0-00-00--0--00-0-2-3---------------|

G|-----------------------------------------------------6/888886--------------|
D|-------------------------------------------------------------8\------------|
A|--2-2-2-2-2-2-2-2----------------------------------------------------------|
E|-------------------5-5-5-5-5-5-5-5-0----0-00-00--0-------------------------|


[Verse 2]

(Repeat Verse 1)


[Chorus 2]

(Repeat Chorus 2)


[Bridge]

You're gonna want to slide from 12 on the E flat string before Brendon sings during the "chanting" after they 
say "world of fun"
G|---------------------------------------------------------------------------|
D|---------------------------------------------------------------------------|
A|---------------------------------------------------------------------------|
E|--12\----------------------------------------------------------------------|

When Brendon starts singing play this 
G|---------------------------------------------------------------------------|
D|---------------------------------------------------------------------------|
A|--2-2-2-2-4-4-4-4----------------------------------------------------------|
E|-------------------5-5-5-5-5-5-5-5-0----0----0-00-00--0~--0~--0~--0~-------|


[Chorus 3]

Also, there's this weird sound in parts of the track that sounds like voices, so I decided to tab them if you
wanted to play along.

(Repeat Chorus 1 again)
G|---------------------------------------------------------------------------|
D|--8-9-8-9-8-9-8------------------------------------------------------------|
A|---------------------------------------------------------------------------|
E|------------------8-10-8-7--5----------------------------------------------| 

 
************************************

| /  Slide up
| \  Slide down
| ~  Vibrato

************************************

            
            
Suggest correction
Creating personal tab
Creating personal tab
You can edit any tab online and save it as your Personal.

You can edit, replace or remove any tab part or add personal notes – all changes will be seen only by you.

Personal tabs can be accessed anytime from any device, even offline.
Learn more »
comments
print report bad tab
2 comments total.
0 reply
bgward65 87 Jan 04, 2016 07:26 PM, edited on January 5 2016, 12:26 am

Sounds great :)

0 reply
bgward65 87 Jan 04, 2016 07:38 PM, edited on January 5 2016, 12:46 am

Correct me if I'm wrong, but on the part in the verse where he says "If it feels good, tastes good..." (the part where its 9999888866664444) I only hear two notes being played, both 8 times. I don't have my bass on me right now but wouldn't it actually be on the E string, 6666666633333333 (with the 1/2 tuning. If it was standard tuning it would be 5555555522222222). At least this is what I've observed on YouTube. What do you think?
(I do notice how she plays in standard tuning but this is what I used and converted it the tuning you used. Just wanted you to have a reference for where I got my info)
https://www.youtube.com/watch?v=wVjfVA6zUgA#identifier

guest
You may want to rate the tab now too:
select rating
Wanna post a correction for this tab? Suggest correction