Oops, an error
Loading. Please wait.

Emperors New Clothes tab

version 1
version 1

Whole song

Interactive

3,388 views 96 this week
1 commentread comment
1 2 3 4 5
x 3
add to favorites
×
Save as Personal and add changes to this tab that will be seen only by you. Learn more ›
×
You can save this tab as Personal to edit and correct it or add notes. All changes will be seen only by you. Learn more »
launch autoscroll
font size
0
reset
how to read this tab
guitar tuner
edit
Autoscroll
slow
fast
+/-
esc
set tempo
stop
Emperor's New Clothes
By Panic! At the Disco
Tabbed by Jan Christian Blaise Bombio Cruz

Tuning: Drop D [eBGDAD]

I based this one off of their many live performances of Emperor's New Clothes. They drop the
key down in their live performances of the song, but this one is in the key of the original
recording.


[Intro]

    Finders keepers losers weepers  *weird sound*   
e|-------------------------------------------------------------|
B|-------------------------------------------------------------|
G|-------------------------------------------------------------|
D|-------------------------------------------------------------| 
A|-------------------------------------------------2h3p2-------|
D|------------------------------------------------------3p2p0--|


[Verse 1]

(All notes palm muted)
e|-------------------|-------------------|-------------------|-------------------------|
B|-------------------|-------------------|-------------------|-------------------------|
G|-------------------|-------------------|-------------------|-------------------------|
D|-------------------|-------------------|-------------------|-------------------------|
A|-------------------|-------------------|-------------------|-------------------------|
D|--2/8-8888-2-3--0--|--2/8-8888-2-3--0--|--2/8-8888-2-3--0--|--2/14-1414141414-7-5-0--|

e|---------------------------------------|-------------------|-------------------------|
B|---------------------------------------|-------------------|-------------------------|
G|---------------------------------------|-------------------|-------------------------|
D|--9-9-9-9-9-9-9-9--6-6-6-6-6-6-6-6-----|-------------------|-------------------------|
A|--9-9-9-9-9-9-9-9--6-6-6-6-6-6-6-6-----|-------------------|-------------------------|
D|--9-9-9-9-9-9-9-9--6-6-6-6-6-6-6-6--0--|--2/8-8888-2-3--0--|--2/14-1414141414-7-5-0--|

    Just might see a ghost tonight  *weird sound*  
e|--------------------------------------------------------------|
B|--------------------------------------------------------------|
G|--------------------------------------------------------------|
D|--------------------------------------------------------------| 
A|--------------------------------------------------2h3p2-------|
D|-------------------------------------------------------3p2p0--|


[Chorus]

    Crown...         Naked...               Losers...           Yeah...
e|---------------------------------------|-------------------|---------------|
B|---------------------------------------|-------------------|---------------|
G|---------------------------------------|-------------------|---------------|
D|--9-9-9-9-9-9-9-9--6-6-6-6-6-6-6-6--0--|-------------------|---------------|
A|--9-9-9-9-9-9-9-9--6-6-6-6-6-6-6-6--0--|-------------------|---------------| 
D|--9-9-9-9-9-9-9-9--6-6-6-6-6-6-6-6--0--|--2/8-8888-2-3--0--|--2/5-5-5-7-7--|

    Crown...         Taste it...            Losers...           Yeah...
e|---------------------------------------|-------------------|---------------|
B|---------------------------------------|-------------------|---------------|
G|---------------------------------------|-------------------|---------------|
D|--9-9-9-9-9-9-9-9--6-6-6-6-6-6-6-6--0--|-------------------|---------------|
A|--9-9-9-9-9-9-9-9--6-6-6-6-6-6-6-6--0--|-------------------|---------------| 
D|--9-9-9-9-9-9-9-9--6-6-6-6-6-6-6-6--0--|--2/8-8888-2-3--0--|--2/5-5-5-7-7--|

    *weird sound*  
e|-----------------------------|
B|-----------------------------|
G|-----------------------------|
D|-----------------------------| 
A|-----------------2h3p2-------|
D|----------------------3p2p0--|


[Verse 2]

(All notes palm muted)
e|-------------------|-------------------|-------------------|-------------------------|
B|-------------------|-------------------|-------------------|-------------------------|
G|-------------------|-------------------|-------------------|-------------------------|
D|-------------------|-------------------|-------------------|-------------------------|
A|-------------------|-------------------|-------------------|-------------------------|
D|--2/8-8888-2-3--0--|--2/8-8888-2-3--0--|--2/8-8888-2-3--0--|--2/14-1414141414-7-5-0--|

e|---------------------------------------|-------------------|-------------------------|
B|---------------------------------------|-------------------|-------------------------|
G|---------------------------------------|-------------------|-------------------------|
D|--9-9-9-9-9-9-9-9--6-6-6-6-6-6-6-6-----|-------------------|-------------------------|
A|--9-9-9-9-9-9-9-9--6-6-6-6-6-6-6-6-----|-------------------|-------------------------|
D|--9-9-9-9-9-9-9-9--6-6-6-6-6-6-6-6--0--|--2/8-8888-2-3--0--|--2/14-1414141414-7-5-0--|

    But you know legends never die  *weird sound*  
e|--------------------------------------------------------------|
B|--------------------------------------------------------------|
G|--------------------------------------------------------------|
D|--------------------------------------------------------------| 
A|--------------------------------------------------2h3p2-------|
D|-------------------------------------------------------3p2p0--|


[Chorus]

    Crown...         Naked...               Losers...           Yeah...
e|---------------------------------------|-------------------|---------------|
B|---------------------------------------|-------------------|---------------|
G|---------------------------------------|-------------------|---------------|
D|--9-9-9-9-9-9-9-9--6-6-6-6-6-6-6-6--0--|-------------------|---------------|
A|--9-9-9-9-9-9-9-9--6-6-6-6-6-6-6-6--0--|-------------------|---------------| 
D|--9-9-9-9-9-9-9-9--6-6-6-6-6-6-6-6--0--|--2/8-8888-2-3--0--|--2/5-5-5-7-7--|

    Crown...         Taste it...            Losers...           Yeah...
e|---------------------------------------|-------------------|---------------|
B|---------------------------------------|-------------------|---------------|
G|---------------------------------------|-------------------|---------------|
D|--9-9-9-9-9-9-9-9--6-6-6-6-6-6-6-6--0--|-------------------|---------------|
A|--9-9-9-9-9-9-9-9--6-6-6-6-6-6-6-6--0--|-------------------|---------------| 
D|--9-9-9-9-9-9-9-9--6-6-6-6-6-6-6-6--0--|--2/8-8888-2-3--0--|--2/5-5-5-7-7--|


[Bridge]

    Ohh...  Yeah...  Ohh...                 Losers...           Taking back...
e|---------------------------------------|-------------------|---------------|
B|---------------------------------------|-------------------|---------------|
G|---------------------------------------|-------------------|---------------|
D|--9-9-9-9-9-9-9-9--6-6-6-6-6-6-6-6--0--|-------------------|---------------|
A|--9-9-9-9-9-9-9-9--6-6-6-6-6-6-6-6--0--|-------------------|---------------| 
D|--9-9-9-9-9-9-9-9--6-6-6-6-6-6-6-6--0--|--2/8-8888-2-3--0--|--2/5-5-5-7-7--|


[Chorus]

    Crown...         Naked...               Losers...           Yeah...
e|---------------------------------------|-------------------|---------------|
B|---------------------------------------|-------------------|---------------|
G|---------------------------------------|-------------------|---------------|
D|--9-9-9-9-9-9-9-9--6-6-6-6-6-6-6-6--0--|-------------------|---------------|
A|--9-9-9-9-9-9-9-9--6-6-6-6-6-6-6-6--0--|-------------------|---------------| 
D|--9-9-9-9-9-9-9-9--6-6-6-6-6-6-6-6--0--|--2/8-8888-2-3--0--|--2/5-5-5-7-7--|

    Crown...         Taste it...            Losers...           Yeah...
e|---------------------------------------|-------------------|---------------|
B|---------------------------------------|-------------------|---------------|
G|---------------------------------------|-------------------|---------------|
D|--9-9-9-9-9-9-9-9--6-6-6-6-6-6-6-6--0--|-------------------|---------------|
A|--9-9-9-9-9-9-9-9--6-6-6-6-6-6-6-6--0--|-------------------|---------------| 
D|--9-9-9-9-9-9-9-9--6-6-6-6-6-6-6-6--0--|--2/8-8888-2-3--0--|--2/5-5-5-7-7--|


[Outro]

    Finders keepers losers weepers  *weird sound*   
e|-------------------------------------------------------------|
B|-------------------------------------------------------------|
G|-------------------------------------------------------------|
D|-------------------------------------------------------------| 
A|-------------------------------------------------2h3p2-------|
D|------------------------------------------------------3p2p0--|

    Finders keepers losers weepers  *weird sound*   
e|-------------------------------------------------------------|
B|-------------------------------------------------------------|
G|-------------------------------------------------------------|
D|-------------------------------------------------------------| 
A|-------------------------------------------------2h3p2-------|
D|------------------------------------------------------3p2p0--|



************************************

| h  Hammer-on
| p  Pull-off
| /  Slide up

************************************

            
            
Suggest correction
Creating personal tab
Creating personal tab
You can edit any tab online and save it as your Personal.

You can edit, replace or remove any tab part or add personal notes – all changes will be seen only by you.

Personal tabs can be accessed anytime from any device, even offline.
Learn more »
Give kudos to tab author, rate the tab!
1 2 3 4 5
comments
print report bad tab
1 comment total.
+1 reply
hbkpachow 10 May 20, 2017 11:09 PM

didn't like this contribution

guest
You may want to rate the tab now too:
select rating
Wanna post a correction for this tab? Suggest correction