Oops, an error
Loading. Please wait.

Emperors New Clothes bass

version 2
version 2

Whole song

  • This is the tab by Alto Fox which helped me learn ... Show more

Interactive

2,161 views 9 this week
no commentswrite comment
1 2 3 4 5
x 6
add to favorites
×
Save as Personal and add changes to this tab that will be seen only by you. Learn more ›
×
You can save this tab as Personal to edit and correct it or add notes. All changes will be seen only by you. Learn more »
launch autoscroll
font size
0
reset
guitar tuner
edit
Autoscroll
slow
fast
+/-
esc
set tempo
stop
Author
Difficulty
Standard Tuning
I found this was the easiest way to play it that sounded the most correct to me in standard tuning.
I might have missed a few fills, but feel free to add them/figure them out.
 
Intro
G|---------|
D|---------|
A|---------|
E|-11\-----|

Verse
G|---------------------------------------------6/888886-----|
D|------8-8--6-8------88888---------8-8--6-8-----------8\---|
A|--6--6----------6--6-----89--6--6----------6--------------|
E|----------------------------------------------------------|

G|-----------------------------------------6/888886------|
D|------------------------------8-8--6-8-----------8\----|
A|--------------------------6--6----------6--------------|
E|--7-7-7-7-7-7-4-4-4-4-4-4------------------------------|

Chorus 
G|--------------------------------------------------------|
D|------------------------------8-8--6-8------------8-8---| 
A|-------------------------6--6----------6-6-8-8-9-9------|
E|--7-7-7-7-7-4-4-4-4-4-4---------------------------------| 

G|------------------------------------------8-8-8-8-8-6-----|
D|-----------------------------8-8--6-8----------------8\---| 
A|------------------------6--6----------6--6----------------|
E|--7-7-7-7-7-4-4-4-4-4-4-----------------------------------|

Repeat Verse 
Repeat Chorus

Bridge
G|-------------------------------------------------------|
D|----------------------------------8-8--6-8-------------| 
A|-6/---------------------------6-6---------6-6-6-6-6----|
E|-----11/-----7-7-7-7-7-4-4-4-4-------------------------| 

Chorus 
G|---------------------------------------------------------|
D|------------------------------8-8--6-8------------8-8----| 
A|-------------------------6--6----------6-6-8-8-9-9-------|
E|--7-7-7-7-7-4-4-4-4-4-4----------------------------------| 

G|-------------------------------------------8-8-8-8-8-6-----|
D|------------------------------8-8--6-8----------------8\---| 
A|-------------------------6--6----------6--6----------------|
E|--7-7-7-7-7-4-4-4-4-4-4------------------------------------|
Suggest correction
Creating personal tab
Creating personal tab
You can edit any tab online and save it as your Personal.

You can edit, replace or remove any tab part or add personal notes – all changes will be seen only by you.

Personal tabs can be accessed anytime from any device, even offline.
Learn more »
comments
print report bad tab
guest
You may want to rate the tab now too:
select rating
Wanna post a correction for this tab? Suggest correction