Oops, an error
Loading. Please wait.

Emperors New Clothes bass

version 3
version 3

Whole song

  • This is the tab by Alto Fox which helped me learn ... Show more

Interactive

85 views 6 this week
no commentswrite comment
1 2 3 4 5
3 more votes to show rating
add to favorites
×
Save as Personal and add changes to this tab that will be seen only by you. Learn more ›
×
You can save this tab as Personal to edit and correct it or add notes. All changes will be seen only by you. Learn more »
launch autoscroll
font size
0
reset
guitar tuner
edit
Autoscroll
slow
fast
+/-
esc
set tempo
stop
[Intro]
F#|-------|
C#|-------|
G#|-------|
D#|-19/---|

[Verse]

"Welcome to the end of eras..."

F#|--------------------|-------------------|
C#|--------9-9----9----|----9-9-9-9-9------|
G#|-7----7------7---7--|--7-----------9-10-|
D#|--------------------|-------------------| 

F#|---------------------|-----9-9-9-9-9-7--------|
C#|--------9-9----9-----|---/-------------9------| 
G#|-7----7------7---7---|------------------------|
D#|---------------------|------------------------|

"If it feels good...."

F#|------------------------|-----------------|
C#|-10-10-10-10-10-10-10-10|-7-7-7-7-7-7-7-7-|
G#|------------------------|-----------------|
D#|------------------------|-----------------|

F#|---------------------|----9-9-9-9-9-7--------|
C#|--------9-9----9-----|--/-------------9------| 
G#|-7----7------7---7---|-----------------------|
D#|---------------------|-----------------------|

[Chorus]

"I'm taking back the crown..." 

F#|----------------|-----------------|
C#|----------------|-----------------|
G#|-3-3-3-3-3-3-3-3|-----------------|
D#|----------------|-5-5-5-5-5-5-5-5-|

F#|--------------------|----------|
C#|--------------------|----------|
G#|--------------------|--------2-|
D#|-0---0-7-7---0-7-0--|--0-2-3---|

F#|----------------|-----------------|
C#|----------------|-----------------|
G#|-3-3-3-3-3-3-3-3|-----------------|
D#|----------------|-5-5-5-5-5-5-5-5-|


F#|--------------------|------------------|
C#|--------------------|------------------|
G#|--------------------|----7-7-7-7-7-5---|
D#|-0---0-7-7---0-7-0--|--/-------------7-|

[Verse]

"Sycophants on velvet sofas..."

F#|--------------------|-------------------|
C#|--------9-9----9----|----9-9-9-9-9------|
G#|-7----7------7---7--|--7-----------9-10-|
D#|--------------------|-------------------| 

F#|---------------------|-----9-9-9-9-9-7--------|
C#|--------9-9----9-----|---/-------------9------| 
G#|-7----7------7---7---|------------------------|
D#|---------------------|------------------------|

"If it feels good...."

F#|------------------------|-----------------|
C#|-10-10-10-10-10-10-10-10|-7-7-7-7-7-7-7-7-|
G#|------------------------|-----------------|
D#|------------------------|-----------------|

F#|---------------------|-----9-9-9-9-9-7--------|
C#|--------9-9----9-----|---/-------------9------| 
G#|-7----7------7---7---|------------------------|
D#|---------------------|------------------------|

[Chorus]

"I'm taking back the crown..." 

F#|----------------|-----------------|
C#|----------------|-----------------|
G#|-3-3-3-3-3-3-3-3|-----------------|
D#|----------------|-5-5-5-5-5-5-5-5-|

F#|--------------------|----------|
C#|--------------------|----------|
G#|--------------------|--------2-|
D#|-0---0-7-7---0-7-0--|--0-2-3---|

F#|----------------|-----------------|
C#|----------------|-----------------|
G#|-3-3-3-3-3-3-3-3|-----------------|
D#|----------------|-5-5-5-5-5-5-5-5-|

F#|--------------------|------------------|
C#|--------------------|------------------|
G#|--------------------|----7-7-7-7-7-5---|
D#|-0---0-7-7---0-7-0--|--/-------------7-| 

[Chorus]

"OhhhhOhhh..." 

F#|----------------|-----------------|
C#|----------------|-----------------|
G#|-3-3-3-3-3-3-3-3|-----------------|
D#|----------------|-5-5-5-5-5-5-5-5-|

"Finders Keepers, Losers Weepers!"

F#|--------------------|---------|
C#|--------------------|---------|
G#|--------------------|---------|
D#|-0---0-7-7---0-7-0--|--0-0-0--|

F#|----------------|-----------------|
C#|----------------|-----------------|
G#|-3-3-3-3-3-3-3-3|-----------------|
D#|----------------|-5-5-5-5-5-5-5-5-|

F#|-------------------|-----------|
C#|-------------------|-----------|
G#|-------------------|---------2-|
D#|-0---0-7-7---0-7-0-|---0-2-3---|

F#|----------------|-----------------|
C#|----------------|-----------------|
G#|-3-3-3-3-3-3-3-3|-----------------|
D#|----------------|-5-5-5-5-5-5-5-5-|

F#|--------------------|------------------|
C#|--------------------|------------------|
G#|--------------------|----7-7-7-7-7-5---|
D#|-0---0-7-7---0-7-0--|--/-------------7-|


***********************************

| /   Slide up
| \   Slide down

***********************************
Suggest correction
Creating personal tab
Creating personal tab
You can edit any tab online and save it as your Personal.

You can edit, replace or remove any tab part or add personal notes – all changes will be seen only by you.

Personal tabs can be accessed anytime from any device, even offline.
Learn more »
Give kudos to tab author, rate the tab!
1 2 3 4 5
comments
print report bad tab
guest
You may want to rate the tab now too:
select rating
Wanna post a correction for this tab? Suggest correction