Oops, an error
Loading. Please wait.

Emperors New Clothes tab

version 3
version 3

Whole song

Interactive

763 views 30 this week
no commentswrite comment
1 2 3 4 5
2 more votes to show rating
add to favorites
×
Save as Personal and add changes to this tab that will be seen only by you. Learn more ›
×
You can save this tab as Personal to edit and correct it or add notes. All changes will be seen only by you. Learn more »
launch autoscroll
font size
0
reset
how to read this tab
guitar tuner
edit
Autoscroll
slow
fast
+/-
esc
set tempo
stop
[Intro]
e|-------------------------------------------------------------------------------------------------|
B|-------------------------------------------------------------------------------------------------|
G|-------------------------------------------------------------------------------------------------|
D|-------------------------------------------------------------------------------------------------|
A|-0-7-0-7-07-0--7--/8-/7-/6-/5-/4----44444444----8887----------0-7-0-7-07-0--7--------8887--------|
E|-------------------------------------------------------------------------------------------------|
   (Trumpet)       (Gooooooooooooo)           (Go Go Go Down)  (Finders Keepers Losers Weepers)(Go Go Go Down)

[Verse 1]
e|---------------------------------------------------------------|
B|---------------------------------------------------------------|
G|---------------------------------------------------------------|
D|---------------------------------------------------------------|
A|0-2-3-20--2-3-2--0-2-3-20-5-3--0-2-3-20--2-3-2--0-2-3-20-5-3---|
E|---------------------------------------------------------------|
  (Welcome To The End of Eras    (Done my time and served my sentence
  Ice Has melted back to life)    Dress me up and watch me die)
e|---------------------------------------------------------------|
B|---------------------------------------------------------------|
G|---------------------------------------------------------------|
D|---------------------------------------------------------------|
A|00-7-0-7-0-7--00----0-2-3-20--2-3-2--0-2-3-20-5-3---8887-------|
E|-----------------3---------------------------------------------|
  (If it feels good,  (Dynasty decapitated, you just (Go Go Go Down)
   tastes good,         might see a ghost tonight)
   it mustbe mine)
 
[Pre-Chorus & Chorus]
e|---------------------------------------------------------------|
B|---------------------------------------------------------------|
G|---------------------------------------------------------------|
D|---------------------------------------------------------------| 
A|000333532--777-7-8-75--888-77-5--777-55-3----0-(12)-7-53-------|
E|---------------------------------------------------------------|
 (And if you (I'm taking back the crown, I'm all dressed up and                      
 Don't know   naked, I see what's mine and take it) (Oh ooh Yeah!)
 Now you know)    

[Chorus continued]
e|---------------------------------------------------------------|
B|---------------------------------------------------------------|
G|---------------------------------------------------------------|
D|---------------------------------------------------------------| 
A|7-8-75--777-7-8-75----777-55-3----0-(12)-7-53------------------|
E|---------------------------------------------------------------|
 (The Crown)(I'm so close I can taste it                      
             I see what's mine and take it) (Oh ooh Yeah!)

[Verse 2]
e|---------------------------------------------------------------|
B|---------------------------------------------------------------|
G|---------------------------------------------------------------|
D|---------------------------------------------------------------|
A|0-2-3-20--2-3-2--0-2-3-20-5-3--0-2-3-20--2-3-2--0-2-3-20-5-3---|
E|---------------------------------------------------------------|
  (Sycophants on velvet sofas   (I am so much more than royal
  lavish mansions, vintage wine)  snatch your chian and mace your eyes)
e|---------------------------------------------------------------|
B|---------------------------------------------------------------|
G|---------------------------------------------------------------|
D|---------------------------------------------------------------|
A|00-7-0-7-0-7--00----0-2-3-20--2-3-2--0-2-3-20-5-3---8887-------|
E|-----------------3---------------------------------------------|
  (If it feels good,  (Heros always get remembered (Go Go Go Down)
  tastes good,it must  But you know legends never die)
  be mine)

[Pre-Chorus & Chorus]
e|---------------------------------------------------------------|
B|---------------------------------------------------------------|
G|---------------------------------------------------------------|
D|---------------------------------------------------------------| 
A|000333532--777-7-8-75--888-77-5--777-55-3----0-(12)-7-53-------|
E|---------------------------------------------------------------|
 (And if you (I'm taking back the crown, I'm all dressed up and                      
 Don't know   naked, I see what's mine and take it) (Oh ooh Yeah!)
 Now you know)

[Chorus continued]
e|---------------------------------------------------------------|
B|---------------------------------------------------------------|
G|---------------------------------------------------------------|
D|---------------------------------------------------------------| 
A|7-8-75--777-7-8-75----777-55-3----0-(12)-7-53------------------|
E|---------------------------------------------------------------|
 (The Crown)(I'm so close I can taste it                      
             I see what's mine and take it) (Oh ooh Yeah!)

[Bridge]
e|---------------------------------------------------------------|
B|---------------------------------------------------------------|
G|---------------------------------------------------------------|
D|---------------------------------------------------------------|
A|-77-6-7-8-7-6-7--77-6-7-8-7-6--77-6-7-8-7-6-7--77-6-7-6-7-(12)-|
E|---------------------------------------------------------------|
(Mortal kings are ruling castles, welcome to my world of fun
Liars settle into sockets, flip the switch and watch them run)

[Pre-Chorus & Chorus]
e|---------------------------------------------------------------|
B|---------------------------------------------------------------|
G|---------------------------------------------------------------|
D|---------------------------------------------------------------| 
A|-7777-77-77-8-75--888-77-5--777-55-3----0-(12)-7-53------------|
E|---------------------------------------------------------------|
 (I'm taking back, back, taking back the crown, I'm all dressed up and                      
   naked, I see what's mine and take it) (Oh ooh Yeah!)

[Chorus continued]
e|---------------------------------------------------------------|
B|---------------------------------------------------------------|
G|---------------------------------------------------------------|
D|---------------------------------------------------------------| 
A|-7-8-75--777-7-8-75----777-55-3----0-(12)-7-53-----------------|
E|---------------------------------------------------------------|
 (The Crown)(I'm so close I can taste it                      
             I see what's mine and take it) (Oh ooh Yeah!)



************************************

| /    Slide up
| (n)  Ghost note
 

************************************

            
            
Suggest correction
Creating personal tab
Creating personal tab
You can edit any tab online and save it as your Personal.

You can edit, replace or remove any tab part or add personal notes – all changes will be seen only by you.

Personal tabs can be accessed anytime from any device, even offline.
Learn more »
Give kudos to tab author, rate the tab!
1 2 3 4 5
comments
print report bad tab
guest
You may want to rate the tab now too:
select rating
Wanna post a correction for this tab? Suggest correction