Oops, an error
Loading. Please wait.
We have an official Girlsgirlsboys tab made by UG professional guitarists. Check out the tab »
×
24,023 views 87 this week
5 commentsread comments
1 2 3 4 5
x 12
add to favorites
launch autoscroll
font size
0
reset
guitar tuner
Autoscroll
slow
fast
+/-
esc
set tempo
stop
Author
Difficulty
intermediate
[Intro]

G|--------2-4--------------6-7------------------------------------------------|
D|---------------------------------------2-4--------4-2-----------------------|
A|-0-2-2-------2-5-5----------------------------------------------------------|
E|--------------------------------2-3-3-------2-3-3---------------------------|


[Pre-Chorus]

G|----------------------------------------------------------------------------------------------------------|
D|-------7-7-7---------7-7-5---------5-5-5--------5-4--------7-7-7---------7-7-5---------5-5-5----5-4-2-0---|
A|----------------------------------------------------------------------------------------------------------|
E|--5-5---------5-5-5---------5-3-3---------3-3-3------3-5-5--------5-5-5---------5-3-3---------3-----------|


[Chorus]

G|--------2-4--------------4-7------------------------------------|
D|---------------------------------------2-4------------4-2-------|
A|-0-2-2-------2-5-5----------------------------------------------|
E|--------------------------------2-3-3----------2-3-3------------|
Suggest correction
comments
print report bad tab
5 comments total. Showing first comments.
0 reply
david_palumbo 10 Aug 22, 2014 05:42 PM

pretty certain that the main riff is:

G|-------2-4-------------6-7----------------------------------------------|
D|------------------------------------2-4-------4-2-----------------------|
A|-0-22-------2-55--------------------------------------------------------|
E|------------------------------5-33-------2-33---------------------------|

trust me, it sounds alot better.
you were pretty close though. good job!

0 reply
thedoylanator 10 Nov 11, 2014 10:25 AM

How many times is the intro, pre-chorus and chorus played and what is the tempo?

0 reply
mair.farley 10 Jul 05, 2015 11:02 AM

anybody have a clue what that little lick is just before the last chorus??

guest
You may want to rate the tab now too:
select rating
Wanna post a correction for this tab? Suggest correction