Oops, an error
Loading. Please wait.

Girlsgirlsboys Bass Tab

version 1
version 1

Whole song

Interactive

14,888 views 108 this week
3 commentsread comments
1 2 3 4 5
accurate
x 8
add to favorites
launch autoscroll
font size
0
reset
guitar tuner
Tab Pro tools
  • play this tab
  • loop segment
  • change instrument
  • show fretboard
  • metronome
×
Best way to learn
"Girlsgirlsboys"
Autoscroll
slow
fast
+/-
esc
set tempo
stop
Contributor
Difficulty
intermediate

Intro 
G|-------2-4-------------6-7----------------------------------------------|
D|------------------------------------2-4-------4-2-----------------------|
A|-0-22-------2-55--------------------------------------------------------|
E|------------------------------2-33-------2-33---------------------------|

Pre-Chorus 
G|---------------------------------------------------------------------------------------------------------|
D|-------7-7-7---------7-7-5---------5-5-5--------5-4--------7-7-7---------7-7-5---------5-5-5----54-2-0---|
A|---------------------------------------------------------------------------------------------------------|
E|--5-5---------5-5-5---------5-3-3---------3-3-3------3-5-5--------5-5-5---------5-3-3---------3----------|

Chorus: 
G|-------2-4-------------4-7----------------------------------|
D|------------------------------------2-4-----------4-2-------|
A|-0-22-------2-55--------------------------------------------|
E|------------------------------2-33----------2-33------------|

comments
print report bad tab
3 comments total.
0 reply
david_palumbo wrote on August 22 2014, 09:42 pm

pretty certain that the main riff is:

G|-------2-4-------------6-7----------------------------------------------|
D|------------------------------------2-4-------4-2-----------------------|
A|-0-22-------2-55--------------------------------------------------------|
E|------------------------------5-33-------2-33---------------------------|

trust me, it sounds alot better.
you were pretty close though. good job!

0 reply
thedoylanator wrote on November 11 2014, 03:25 pm

How many times is the intro, pre-chorus and chorus played and what is the tempo?

0 reply
mair.farley wrote on July 5 2015, 03:02 pm

anybody have a clue what that little lick is just before the last chorus??

I want to post or [tab]
guest
You may want to rate the tab now too:
select rating
Please do not post tabs as comments. Select "correction" instead!