Oops, an error
Loading. Please wait.

Girlsgirlsboys Bass Tab

version 2
version 2

Whole song

Interactive

6,362 views 18 this week
7 commentsread comments
1 2 3 4 5
x 10
add to favorites
launch autoscroll
font size
0
reset
guitar tuner
Autoscroll
slow
fast
+/-
esc
set tempo
stop
Help us to improve Ultimate-Guitar.com Take our survey!
×
Author
Difficulty
intermediate
-------------------------------------------------------------------------------
                             Girls/Girls/Boys - Panic! At The Disco
-------------------------------------------------------------------------------
Tabbed by: Jordanlolss

Tuning: Standard

(Intro & Verse 1)

G|---------------------------------------------------------------------------|
D|--------7-9----------11-12---------2-4--------4-2--------------------------| (x6)
A|---------------------------------------------------------------------------|
E|-5/7-7-------7/10-10---------2/3-3------2/3-3------------------------------|

(Pre-Chorus)

G|---------------------------------------------------------------------------|
D|--------7-7-7-----7-7-5---------5-5-5 -------5-4--------7-7-7--------7-7-5-|
A|---------------------------------------------------------------------------|
E|--5-5-5-----5-5-5---------5-3-3--------3-3-3------3-5-5--------5-5-5-------|

G|---------------------------------------------------------------------------|
D|-------5-5-5----5-4-2------------------------------------------------------|
A|----------------------5----------------------------------------------------|
E|-5-3-3---------------------------------------------------------------------|


(Chorus)

G|---------------------------------------------------------------------------|
D|--------7-9----------11-12---------2-4--------4-2--------------------------| (x4)
A|---------------------------------------------------------------------------|
E|-5/7-7-------7/10-10---------2/3-3------2/3-3------------------------------|

(Verse 2)

G|---------------------------------------------------------------------------|
D|--------7-9----------11-12---------2-4--------4-2--------------------------| (x4)
A|---------------------------------------------------------------------------|
E|-5/7-7-------7/10-10---------2/3-3------2/3-3------------------------------|

(Pre-Chorus)

G|---------------------------------------------------------------------------|
D|--------7-7-7-----7-7-5---------5-5-5 -------5-4--------7-7-7--------7-7-5-|
A|---------------------------------------------------------------------------|
E|--5-5-5-----5-5-5---------5-3-3--------3-3-3------3-5-5--------5-5-5-------|

G|---------------------------------------------------------------------------|
D|-------5-5-5----5-4-2------------------------------------------------------|
A|----------------------5----------------------------------------------------|
E|-5-3-3---------------------------------------------------------------------|

(Chorus)

G|---------------------------------------------------------------------------|
D|--------7-9----------11-12---------2-4--------4-2--------------------------| (x3)
A|---------------------------------------------------------------------------|
E|-5/7-7-------7/10-10---------2/3-3------2/3-3------------------------------|

G|---------------------------------------------------------------------------|
D|--------7-9----------11-12---------2-4-------------------------------------|
A|---------------------------------------------------------------------------|
E|-5/7-7-------7/10-10---------2/3-3------2-3--------------------------------|

(Bridge)

G|---------------------------------44477-------------------------------------|
D|-5/7-777-57--57-57--755-555-455--------77777775-7777-997755555555555-------|
A|---------------------------------------------------------------------------|
E|---------------------------------------------------------------------------|

G|---------------------------------------------------------------------------|
D|---------------------------------------------------------------------------|
A|---------------------------------------------------------------------------|
E|-3-3-33--33-3-33-3/7-7-7-7-7-7-7-7-7/10-10-10-10-10-10-10-10-10/3-3-3-3-3-3|

G|------------------6-7------------------------------------------------------|
D|----------------7----------------------------------------------------------|
A|------------2-4------------------------------------------------------------|
E|-3-3-3-33-5----------------------------------------------------------------|

(Chorus)

G|---------------------------------------------------------------------------|
D|--------7-9----------11-12---------2-4--------4-2--------------------------| (x4)
A|---------------------------------------------------------------------------|
E|-5/7-7-------7/10-10---------2/3-3------2/3-3------------------------------|



| /  slide up
| \  slide down
| h  hammer-on
| p  pull-off
| ~  vibrato
| +  harmonic
| x  Mute note
===============================================================================
Suggest correction
comments
print report bad tab
7 comments total. Showing first comments.
-1 reply
monkey50 32 Oct 04, 2014 08:22 AM

Lack of accuracy. The tab doesnt sound right. Poor formatting. Try again because this just didnt work. Try listening to the song again?

0 reply
jordanlolss 165 Oct 09, 2014 02:34 PM

Go for it, this sounds pretty accurate to me

-1 reply
brooketrout 76 Dec 25, 2014 12:12 PM

wonderful tab! This is one of my favorite songs thank you so much for tabbing it

guest
You may want to rate the tab now too:
select rating
Wanna post a correction for this tab? Suggest correction