Oops, an error
Loading. Please wait.

Girlsgirlsboys Bass Tab

version 3
version 3

Whole song

Interactive

730 views 1 this week
1 commentread comment
1 2 3 4 5
accurate
x 3
add to favorites
launch autoscroll
font size
0
reset
guitar tuner
Autoscroll
slow
fast
+/-
esc
set tempo
stop
Help us to improve Ultimate-Guitar.com Take our survey!
×
Author
Difficulty
intermediate
-----------------------------------------------------------------------------
                    Girls/Girls/Boys - Panic! At The Disco
-----------------------------------------------------------------------------

After looking at the bass tabs for this song I thought that they were
wrong/weren't complete so here is how I play the song. If I have got anything
wrong just leave a comment and i'll try and correct it.

Intro/Verse:

G|------4-5------6-7-------------------|
D|------------------------2-4------4-2-|   x6
A|-0-22-----4-55-----------------------|
E|-------------------2-33-----2-32-----|

Pre-Chorus:

G|-----------------------------------------------------------------------|
D|----777-----77------555-----5-4-------777-----77------555----5-4-2-----|
A|--------------9-----------------5---------------9------------------5-2-|
E|-55-----555-----533-----333-------355-----555-----533-----3------------|

Chorus 1:

G|------4-5------6-7-------------------|
D|------------------------2-4------4-2-|   x3
A|-0-22-----4-55-----------------------|
E|-------------------2-33-----2-32-----|

G|------4-5------6-7---------------------|
D|------------------------2-4------4-2---|  x1
A|-0-22-----4-55-----------------------0-|
E|-------------------2-33-----2-32-------|

Repeat Intro/Verse x4

Repeat Pre-Chorus x1

Chorus 2:

G|------4-5------6-7-------------------|
D|------------------------2-4------4-2-|   x3
A|-0-22-----4-55-----------------------|
E|-------------------2-33-----2-32-----|

G|------4-5------6-7------------|
D|------------------------2-4---|  x1
A|-0-22-----4-55----------------|
E|-------------------2-33-----33|

Bridge:

G|--------------------------------------------------|
D|--------------------------------------------------|
A|-/12-12-12-12-12-12-12----12-12-12----12----12----|
E|-----------------------12----------12----12----12-|

G|--------------------------------------------------|
D|----------------------------------9-9-9-12-12-----|
A|-10-10-10-10-10-10-10----10-10-10-----------------|
E|----------------------10--------------------------|

G|--------------------------------------------------|
D|--------------------------------------------------|
A|-/12-12-12-12-12-12-12----12-12-12-14-14-14-12-12-|
E|-----------------------12-------------------------|

G|----------------------------|
D|----------------------------|
A|-10-10-10-10-10-10-10-10-10-|
E|----------------------------|

Chorus 3 :

G|----------------------------------------------------------------|
D|----------------------------------------------------------------|
A|--------------------------------2-2-2-2-2-2-2-2-5-5-5-5-5-5-5-5-|
E|-3-3-3-3-3-3-3-3-3-3-3-3-3-3-3-3--------------------------------|

G|----------------------------7-|
D|------------------------7-9---|
A|---------------------5-9------|
E|-3-3-3-3-3-3-3-3-3-7----------|

G|----4-5------6-7-----------------|
D|----------------------2-4-----4-2|
A|-22-----4-55---------------------|
E|-----------------2-33-----2-32---|

G|------4-5------6-7-------------------|
D|------------------------2-4------4-2-|   x2
A|-0-22-----4-55-----------------------|
E|-------------------2-33-----2-32-----|

G|------4-5------6-7---------------------|
D|------------------------2-4------4-2---| 
A|-0-22-----4-55-----------------------0-|
E|-------------------2-33-----2-32-------|
Suggest correction
Give kudos to tab author, rate the tab!
1 2 3 4 5
comments
print report bad tab
1 comment total.
+1 reply
simonclaret50 10 wrote on April 1 2016, 12:45 pm

Been trying to figure this out for ages! Finally a good, accurate tab!

guest
You may want to rate the tab now too:
select rating
Please do not post tabs as comments. Select "correction" instead!