Oops, an error
Loading. Please wait.

Golden Days bass

version 1
version 1

Whole song

4,849 views 21 this week
6 commentsread comments
1 2 3 4 5
x 14
add to favorites
×
Save as Personal and add changes to this tab that will be seen only by you. Learn more ›
×
You can save this tab as Personal to edit and correct it or add notes. All changes will be seen only by you. Learn more »
launch autoscroll
font size
0
reset
guitar tuner
edit
Autoscroll
slow
fast
+/-
esc
set tempo
stop
Author
Difficulty
-------------------------------------------------------------------------------
                             Golden Days - Panic! At The Disco
-------------------------------------------------------------------------------
Tabbed by: emilinikole
E-mail: ilime_26@hotmail.com

I was listening to this song and the bass line seemed pretty audible so I thought I'd 
help you guys out and tab it for you. There's a part that I left out, it's a simple slide. This is just
how I normally play it, 

Tuning: Standard EADG

"I found a pile of polaroids..."
G|---------------------------------------------------------------------------------|
D|--2-2-2-2---2-2-2-2--------------------------------------------------------------|  x2
A|----------2---------2h3-3-3-3p2h3-3-3p2-------------------2-2-2-2---2-2-2-2------|
E|----------------------------------------3-3-3-3p2-3-3-3-3---------3--------------|

"In the summertime.."
G|---------------------------------------------------------------------------------|
D|---------------------2-2-2-2---2-2-2-2------------------------1-1-1-1---1-1-1-1--|
A|-3-3-3-3p2h3-3-3-3p2---------2----------2-3-3-3-3p2h3-3-3-3p2---------2---------2|
E|---------------------------------------------------------------------------------|

"Forever young or growing older just the same..."(optional, no bass is obvious, I like 
adding this in. In mp)
G|-00000000-44444444-99999999-55555555---|
D|---------------------------------------| x2
A|---------------------------------------|
E|---------------------------------------|

"We'll stay drunk, we'll stay tan..."
G|---------------------------------------------|
D|--------------------22222222-----------------| x3
A|-----------22222222----------33333333--------|
E|--33333333-----------------------------------|

"I bet they met some diplomats..."
G|---------------------------------------------------------------------------------|
D|--2-2-2-2---2-2-2-2--------------------------------------------------------------|  x2
A|----------2---------2h3-3-3-3p2h3-3-3p2-------------------2-2-2-2---2-2-2-2------|
E|----------------------------------------3-3-3-3p2-3-3-3-3---------3--------------|

"In the summertime.."
G|---------------------------------------------------------------------------------|
D|---------------------2-2-2-2---2-2-2-2------------------------1-1-1-1---1-1-1-1--|
A|-3-3-3-3p2h3-3-3-3p2---------2----------2-3-3-3-3p2h3-3-3-3p2---------2---------2|
E|---------------------------------------------------------------------------------|

"Forever young or growing older just the same..." (optional, again. Mp)
G|-00000000-44444444-99999999-55555555---|
D|---------------------------------------| x2
A|---------------------------------------|
E|---------------------------------------|

"We'll stay drunk, we'll stay tan..."
G|---------------------------------------------|
D|--------------------22222222-----------------| x3
A|-----------22222222----------33333333--------|
E|--33333333-----------------------------------|

"Time can never break your heart..." (I'm a bit unsure about this part, it sounds okay 
but feedback would be appreciated for this part)
G|---------------------------------------------------------------|
D|-------------------0-00-0-0-0----------------------------------|
A|--0-00-0-0-------------------0-00------------3~----------------|
E|-----------------------------------3-33-3----------------------|

~rest~

"Golden days..."
G|---------------------------------------------|
D|--------------------22222222-----------------| x2
A|-----------22222222----------33333333--------|
E|--33333333-----------------------------------|

End off with

G|------------------------|
D|------------2~----------|
A|--------2~------3~------|
E|--3~----------------3~--|


| /  slide up
| \  slide down
| h  hammer-on
| p  pull-off
| ~  vibrato
| +  harmonic
| x  Mute note
===============================================================================
Suggest correction
Creating personal tab
Creating personal tab
You can edit any tab online and save it as your Personal.

You can edit, replace or remove any tab part or add personal notes – all changes will be seen only by you.

Personal tabs can be accessed anytime from any device, even offline.
Learn more »
comments
print report bad tab
6 comments total. Showing first comments.
0 reply
smallt15 62 Jan 19, 2016 09:05 AM

You need to add a part for the "Golden Days" part of the choruses (if that makes sense?) It's more syncopated/off-beat, and there definitely isn't 8 notes :D

Also, there are extra notes in the "Time can never.." part, and again, it's more off-beat with little runs and extra notes. It's not just 8 straight notes if you like (I don't know bass terminology lol ;D)

Great tab tho! I like the extras you've put in :)

0 reply
Spiritirider19 10 Feb 22, 2016 12:44 PM

Nice tab, seems to match the song.

0 reply
NutMegStudios 10 Mar 02, 2016 08:09 PM

I'm not too sure about the bridge either, but it sounds pretty close. The rest of the tab is on point though. ^_^

guest
You may want to rate the tab now too:
select rating
Wanna post a correction for this tab? Suggest correction