Oops, an error
Loading. Please wait.

Golden Days tab

version 1
version 1

Whole song

5,806 views 84 this week
no commentswrite comment
1 2 3 4 5
x 17
add to favorites
×
Save as Personal and add changes to this tab that will be seen only by you. Learn more ›
×
You can save this tab as Personal to edit and correct it or add notes. All changes will be seen only by you. Learn more »
launch autoscroll
font size
0
reset
how to read this tab
guitar tuner
edit
Autoscroll
slow
fast
+/-
esc
set tempo
stop
Author
Difficulty
---------------------------------------------------------------------------------------------------
                                 GOLDEN DAYS - Panic! At The Disco
---------------------------------------------------------------------------------------------------
Tabbed by: Tristan Checkley (smallt15)
E-mail: td.checkley@googlemail.com

Tuning: Standard (E,A,D,G,B,e)

************************************************************************************

Everything is Palm Muted unless I have put "**NOT PALM MUTED**" next to the timings.

The numbers underneath Bridge 2 (Near the end) are the Beats in each bar.

************************************************************************************


0:01 Verse 1, 2 (I found a pile of polaroids...)

   Em                      C                       G                       B7
e||-----------|-----------|-----------|-----------|-----------|-----------|-----------|-----------||
B||-----------|-----------|-----------|-----------|-----------|-----------|-----------|-----------||
G||-----------|-----------|-----------|-----------|-----------|-----------|-----------|-----------||(x2)
D||2--2--2-2--|2--2--2-2--|-----------|-----------|-----------|-----------|-----------|-----------||
A||----------2|----------2|3--3--3-3--|3--3--3-3-5|-----------|-----------|2--2--2-2-0|2--2--2-2-2||
E||-----------|-----------|----------3|-----------|3--3--3-3-0|3--3--3-3-0|-----------|-----------||

0:31 Bridge (In the summertime...)

   C                       Em                      C                       B7
e||-----------|-----------|-----------|-----------|-----------|-----------|-----------|-----------||
B||-----------|-----------|-----------|-----------|-----------|-----------|-----------|-----------||
G||-----------|-----------|-----------|-----------|-----------|-----------|-----------|-----------||
D||-----------|-----------|2--2--2-2--|2--2--2-2--|-----------|-----------|1--1--1-1--|1--1--1--1-||
A||3--3--3-3--|3--3--3-3--|----------2|----------2|3--3--3-3--|3--3--3-3--|----------2|-----------||
E||----------3|----------3|-----------|-----------|----------3|----------3|-----------|-----------||

0:46 Chorus Part 1 (Oh don't you wonder...)

   G5              B5              E5              C5
e||---------------|---------------|---------------|-----------------------||
B||---------------|---------------|---------------|-----------------------||
G||---------------|---------------|---------------|-----------------------||
D||---------------|---------------|9-9-9-9-9-9-9-9|-----------------------||
A||5-5-5-5-5-5-5-5|9-9-9-9-9-9-9-9|7-7-7-7-7-7-7-7|10-10-10-10-10-10-10-10||
E||3-3-3-3-3-3-3-3|7-7-7-7-7-7-7-7|---------------|8--8--8--8--8--8--8--8-||

0:53 (And the clock...)

   G5              B5              E5              C5
e||---------------|---------------|---------------|-----------------------||
B||---------------|---------------|---------------|-----------------------||
G||---------------|---------------|---------------|-----------------------||(x3)
D||---------------|---------------|---------------|-----------------------||      
A||5-5-5-5-5-5-5-5|9-9-9-9-9-9-9-9|2-2-2-2-2-2-2-2|10-10-10-10-10-10-10-10||
E||3-3-3-3-3-3-3-3|7-7-7-7-7-7-7-7|0-0-0-0-0-0-0-0|8--8--8--8--8--8--8--8-||

1:16 Chorus Part 2 (We'll stay drunk...) **NOT PALM MUTED**

   G               B               Em              C
e||---------------|---------------|---------------|---------------||
B||---------------|---------------|---------------|---------------||
G||---------------|4-4-4-4-4-4-4-4|---------------|5-5-5-5-5--5--5||
D||5-5-5-5-5-5-5-5|4-4-4-4-4-4-4-4|2-2-2-2-2-2-2-2|5-5-5-5-5--5--5||
A||5-5-5-5-5-5-5-5|2-2-2-2-2-2-2-2|2-2-2-2-2-2-2-2|3-3-3-3-3--3--3||
E||3-3-3-3-3-3-3-3|---------------|0-0-0-0-0-0-0-0|---------------||

1:23 Chorus Part 3 (Golden Days!) **NOT PALM MUTED**

   G           B           Em          C
e||-----------|-----------|-----------|-----------||
B||-----------|-----------|-----------|-----------||
G||-----------|4--4--4-4-4|-----------|5--5--5-5-5||(x2)
D||5--5--5-5-5|4--4--4-4-4|2--2--2-2-2|5--5--5-5-5||
A||5--5--5-5-5|2--2--2-2-2|2--2--2-2-2|3--3--3-3-3||
E||3--3--3-3-3|-----------|0--0--0-0-0|-----------||

1:38 Verse 3, 4 (I bet they met some diplomats...)

   Em                      C                       G                       B7
e||-----------|-----------|-----------|-----------|-----------|-----------|-----------|-----------||
B||-----------|-----------|-----------|-----------|-----------|-----------|-----------|-----------||
G||-----------|-----------|-----------|-----------|-----------|-----------|-----------|-----------||(x2)
D||2--2--2-2--|2--2--2-2--|-----------|-----------|-----------|-----------|-----------|-----------||
A||----------2|----------2|3--3--3-3--|3--3--3-3-5|-----------|-----------|2--2--2-2-0|2--2--2-2-2||
E||-----------|-----------|----------3|-----------|3--3--3-3-0|3--3--3-3-0|-----------|-----------||

2:08 Bridge (In the summertime...)

   C                       Em                      C                       B7
e||-----------|-----------|-----------|-----------|-----------|-----------|-----------|-----------||
B||-----------|-----------|-----------|-----------|-----------|-----------|-----------|-----------||
G||-----------|-----------|-----------|-----------|-----------|-----------|-----------|-----------||
D||-----------|-----------|2--2--2-2--|2--2--2-2--|-----------|-----------|1--1--1-1--|1--1--1--1-||
A||3--3--3-3--|3--3--3-3--|----------2|----------2|3--3--3-3--|3--3--3-3--|----------2|-----------||
E||----------3|----------3|-----------|-----------|----------3|----------3|-----------|-----------||

2:23 Chorus 2 Part 1 (Oh don't you wonder...)

   G5              B5              E5              C5
e||---------------|---------------|---------------|-----------------------||
B||---------------|---------------|---------------|-----------------------||
G||---------------|---------------|---------------|-----------------------||(x2)
D||---------------|---------------|9-9-9-9-9-9-9-9|-----------------------||
A||5-5-5-5-5-5-5-5|9-9-9-9-9-9-9-9|7-7-7-7-7-7-7-7|10-10-10-10-10-10-10-10||
E||3-3-3-3-3-3-3-3|7-7-7-7-7-7-7-7|---------------|8--8--8--8--8--8--8--8-||

2:38 (Forever younger...)

   G5              B5              E5              C5
e||---------------|---------------|---------------|-----------------------||
B||---------------|---------------|---------------|-----------------------||
G||---------------|---------------|---------------|-----------------------||(x2)
D||---------------|---------------|---------------|-----------------------||
A||5-5-5-5-5-5-5-5|9-9-9-9-9-9-9-9|2-2-2-2-2-2-2-2|10-10-10-10-10-10-10-10||
E||3-3-3-3-3-3-3-3|7-7-7-7-7-7-7-7|0-0-0-0-0-0-0-0|8--8--8--8--8--8--8--8-||

2:52 Chorus 2 Part 2 (We'll stay drunk...) **NOT PALM MUTED**

   G               B               Em              C
e||---------------|---------------|---------------|---------------||
B||---------------|---------------|---------------|---------------||
G||---------------|4-4-4-4-4-4-4-4|---------------|5-5-5-5-5--5--5||
D||5-5-5-5-5-5-5-5|4-4-4-4-4-4-4-4|2-2-2-2-2-2-2-2|5-5-5-5-5--5--5||
A||5-5-5-5-5-5-5-5|2-2-2-2-2-2-2-2|2-2-2-2-2-2-2-2|3-3-3-3-3--3--3||
E||3-3-3-3-3-3-3-3|---------------|0-0-0-0-0-0-0-0|---------------||

3:01 Chorus 2 Part 3 (Golden Days!) **NOT PALM MUTED**

   G           B           Em          C
e||-----------|-----------|-----------|-----------||
B||-----------|-----------|-----------|-----------||
G||-----------|4--4--4-4-4|-----------|5--5--5-5-5||(x2)
D||5--5--5-5-5|4--4--4-4-4|2--2--2-2-2|5--5--5-5-5||
A||5--5--5-5-5|2--2--2-2-2|2--2--2-2-2|3--3--3-3-3||
E||3--3--3-3-3|-----------|0--0--0-0-0|-----------||

3:16 Bridge 2 (Time can never break...) **NOT PALM MUTED**

   Am            D                     Am     G      C
e||------|------|------|--------------|------|------|------|------|
B||------|------|------|--------------|------|------|------|------|
G||------|------|7-----|--------------|------|------|5-----|------|
D||7-----|7-7---|7-----|--------------|----7-|5--5--|5--Let Ring--|
A||7-----|7-7---|5-----|/9-9-7--5-----|----7-|5--5--|3-----|------|
E||5-----|5-5---|------|-----------8-7|5---5-|3--3--|------|------|
   1      1 +    1       1 + 2  3  4 + 1   3  1  2   1    

3:31 Ending Part 1 (Golden Days...)

   G5              B5              E5              C5
e||---------------|---------------|---------------|-----------------------||
B||---------------|---------------|---------------|-----------------------||
G||---------------|---------------|---------------|-----------------------||
D||---------------|---------------|9-9-9-9-9-9-9-9|-----------------------||
A||5-5-5-5-5-5-5-5|9-9-9-9-9-9-9-9|7-7-7-7-7-7-7-7|10-10-10-10-10-10-10-10||
E||3-3-3-3-3-3-3-3|7-7-7-7-7-7-7-7|---------------|8--8--8--8--8--8--8--8-||

   G5              B5              E5              C5
e||---------------|---------------|---------------|-----------------------||
B||---------------|---------------|---------------|-----------------------||
G||---------------|---------------|---------------|-----------------------||
D||---------------|---------------|---------------|-----------------------||      
A||5-5-5-5-5-5-5-5|9-9-9-9-9-9-9-9|2-2-2-2-2-2-2-2|10-10-10-10-10-10-10-10||
E||3-3-3-3-3-3-3-3|7-7-7-7-7-7-7-7|0-0-0-0-0-0-0-0|8--8--8--8--8--8--8--8-||

3:46 Ending Part 2 (Golden Days!) **NOT PALM MUTED**

   G           B           Em          C
e||-----------|-----------|-----------|-----------||
B||-----------|-----------|-----------|-----------||
G||-----------|4--4--4-4-4|-----------|5--5--5-5-5||(x2)
D||5--5--5-5-5|4--4--4-4-4|2--2--2-2-2|5--5--5-5-5||
A||5--5--5-5-5|2--2--2-2-2|2--2--2-2-2|3--3--3-3-3||
E||3--3--3-3-3|-----------|0--0--0-0-0|-----------||

3:46 Final Chord **NOT PALM MUTED**

   G
e||-----------||
B||-----------||
G||-----------||
D||5----------||
A||5----------||
E||3----------||



Lyrics (Cut up so you can understand Tab more):

|Verse 1
I found a pile of Polaroids
In the crates of a record shop
They were sexy, sexy looking back
From a night that time forgot

|Verse 2
Boy he was something debonair in 1979
And she had Farrah Fawcett hair
Carafes of blood red wine

|Bridge
In the summertime, in the summertime

|Chorus Part 1
Oh don't you wonder when the light begins to fade?
And the clock just makes the colors turn to grey
Forever younger growing older just the same
All the memories that we make will never change

|Chorus Part 2
We'll stay drunk, we'll stay tan, let the love remain
And I swear that I'll always paint you

|Chorus Part 3
Golden days, golden days
Golden days, golden days

|Verse 3
I bet they met some diplomats on Bianca Jagger's new yacht
With their caviar and dead cigars
The air was sauna hot

|Verse 4
I bet they never even thought about
The glitter dancing on the skin
The decades might've washed it out
As the flashes popped like pins

|Bridge
In the summertime, in the summertime

|Chorus 2 Part 1
Oh don't you wonder when the light begins to fade?
And the clock just makes the colors turn to grey
Forever younger growing older just the same
All the memories that we make will never change

|Chorus 2 Part 2
We'll stay drunk, we'll stay tan, let the love remain
And I swear that I'll always paint you

|Chorus 2 Part 3
Golden days, golden days
Golden days, golden days

|Bridge 2
Time can never break your heart
But It'll take the pain away
Right now our future's certain
I won't let it fade away

|Ending Part 1
Golden days, golden days
Golden days, golden days

|Ending Part 2
Golden days, golden days
Golden days, golden days



END



************************************

Hope this tab helps all you Sinners ;)

Tristan xox

************************************

            
            
Suggest correction
Creating personal tab
Creating personal tab
You can edit any tab online and save it as your Personal.

You can edit, replace or remove any tab part or add personal notes – all changes will be seen only by you.

Personal tabs can be accessed anytime from any device, even offline.
Learn more »
comments
print report bad tab
guest
You may want to rate the tab now too:
select rating
Wanna post a correction for this tab? Suggest correction