Oops, an error
Loading. Please wait.

Golden Days bass

version 2
version 2

Whole song

877 views 1 this week
no commentswrite comment
1 2 3 4 5
2 more votes to show rating
add to favorites
×
Save as Personal and add changes to this tab that will be seen only by you. Learn more ›
×
You can save this tab as Personal to edit and correct it or add notes. All changes will be seen only by you. Learn more »
launch autoscroll
font size
0
reset
guitar tuner
edit
Autoscroll
slow
fast
+/-
esc
set tempo
stop
Author
Difficulty
intermediate
-------------------------------------------------------------------------------
                             GOLDEN DAYS - Panic! At The Disco
-------------------------------------------------------------------------------
Tabbed by: daisya

This is my first tab so I hope it's right, sorry if it's not :)
The bridge is sightly messy but all should become clear if you listen to the track
Tuning: Standard EADG

"I found a pile of Polaroids..."
G|------------------------------------------------------------------------------------------|
D|---------------------------------------------5--5--5-5--5--5--5-5--9--9--9-9--9--9--9\----|
A|7--7--7-7--7--7--7-7--3--3--3-3--3--3--3-3-5----------5----------9----------9-------------|
E|---------7----------3----------3----------------------------------------------------------|(x2)

"In the summertime..."
G|------------------------------------------------------------------------------------------------|
D|------------------------------------------------------------------------------------------------|
A|3--3--3-3--3--3--3-3--7--7--7-7--7--7--7-7--3--3--3-3--3--3--3-3--6--6--6-6--6-6-6-6-6-6-6-6----|
E|---------3----------7----------7----------3----------3----------6----------6--------------------|


[Rest]

(Just after "And the clock just makes the colours turn to grey...")
G|---------------------------|
D|2/10-----------------------|
A|---------------------------|
E|---------------------------|

"Forever younger growing older..."
G|----------------------------------------------------------------|
D|----------------------------------------------------------------| 
A|---------------2-2-2-2-2-2-2-2---------------3-3-3-3-3-3-3-3----|
E|3-3-3-3-3-3-3-3---------------0-0-0-0-0-0-0-0-------------------|(x2)

"We'll stay drunk, we'll stay tan..."
G|---------------------------------------------------------------|
D|---------------------------------------------------------------|
A|---------------2-2-2-2-2-2-2-2---------------3-3-3/15-15-15----|
E|3-3-3-3-3-3-3-3---------------0-0-0-0-0-0-0-0------------------|

"Golden days..."
G|----------------------------------------------------------------------------------------------------|
D|----------------------------------------------------------------------------------------------------|
A|------------2--2--2--2-2------------3--3--3--3-3------------2--2--2--2-2------------3-3/15-15-15----|
E|3--3--3--3-3------------0--0--0--0-0------------3--3--3--3-3------------0--0--0--0-0----------------|

"I bet they met some diplomats..."
G|-------------------------------------------------------------------------------------------------|
D|---------------------------------------------5--5--5-5--5--5--5-5--9--9--9-9--9-9-7-7-5-5-4-4----|
A|7--7--7-7--7--7--7-7--3--3--3-3--3--3--3-3-5----------5----------9---------9---------------------|
E|---------7----------3----------3-----------------------------------------------------------------|

"I bet they never even thought about..."
G|-------------------------------------------------------------------------------------------|
D|---------------------------------------------5--5--5-5--5--5--5-5--9--9--9-9---------------|
A|7--7--7-7--7--7--7-7--3--3--3-3--3--3--3-3-5----------5----------9---------9-14-12-10\2----|
E|---------7----------3----------3-----------------------------------------------------------|

"In the summertime..."
G|------------------------------------------------------------------------------------------------|
D|------------------------------------------------------------------------------------------------|
A|3--3--3-3--3--3--3-3--7--7--7-7--7--7--7-7--3--3--3-3--3--3--3-3--6--6--6-6--6-6-6-6-6-6-6-6----|
E|---------3----------7----------7----------3----------3----------6----------6--------------------|


[Rest]

"Forever younger growing older..."
G|----------------------------------------------------------------|
D|----------------------------------------------------------------| 
A|---------------2-2-2-2-2-2-2-2---------------3-3-3-3-3-3-3-3----|
E|3-3-3-3-3-3-3-3---------------0-0-0-0-0-0-0-0-------------------|(x2)

"We'll stay drunk, we'll stay tan..."
G|---------------------------------------------------------------|
D|---------------------------------------------------------------|
A|---------------2-2-2-2-2-2-2-2---------------3-3-3/15-15-15----|
E|3-3-3-3-3-3-3-3---------------0-0-0-0-0-0-0-0------------------|

"Golden days..."
G|----------------------------------------------------------------------------------------------------|
D|----------------------------------------------------------------------------------------------------|
A|------------2--2--2--2-2------------3--3--3--3-3------------2--2--2--2-2------------3-3/15-15-15----|
E|3--3--3--3-3------------0--0--0--0-0------------3--3--3--3-3------------0--0--0--0-0----------------|

"Time can never break your heart..."
G|--------------------------------------------|
D|--------------------------------------------|
A|----------------------------------3/15\3----|
E|5~--5-5~--5/10--5-3-2-0--5~--3-3~-----------|


[Rest]

On the 3rd "Golden days..."
G|-----------------------------------------------------------------|
D|-----------------------------------------------------------------|
A|---------------2-2-2-2-2-2-2-2---------------3-3-3-3/15-15-15----|
E|3-3-3-3-3-3-3-3---------------0-0-0-0-0-0-0-0--------------------|

"Golden days..."
G|----------------------------------------------------------------------------------------------------------|
D|----------------------------------------------------------------------------------------------------------|
A|------------2--2--2--2-2------------3--3--3--3-3------------2--2--2--2-2---------------3-3-3/15-15-15-----|
E|3--3--3--3-3------------0--0--0--0-0------------3--3--3--3-3------------0-0-0-0-0-0-0-0--------------3/15~|



************************************

| \  Slide down
| /  Slide up
| ~  Vibrato

************************************

            
            
Suggest correction
Creating personal tab
Creating personal tab
You can edit any tab online and save it as your Personal.

You can edit, replace or remove any tab part or add personal notes – all changes will be seen only by you.

Personal tabs can be accessed anytime from any device, even offline.
Learn more »
Give kudos to tab author, rate the tab!
1 2 3 4 5
comments
print report bad tab
guest
You may want to rate the tab now too:
select rating
Wanna post a correction for this tab? Suggest correction