Oops, an error
Loading. Please wait.

Hurricane Bass Tab

version 1
version 1

Whole song

Interactive

6,580 views 42 this week
1 commentread comment
1 2 3 4 5
accurate
x 10
add to favorites
launch autoscroll
font size
0
reset
guitar tuner
Tab Pro tools
  • play this tab
  • loop segment
  • change instrument
  • show fretboard
  • metronome
×
Best way to learn
"Hurricane"
Autoscroll
slow
fast
+/-
esc
set tempo
stop
Contributor
Hurricane— Panic! at the Disco (Bass Tab)
Standard Tuning
(You mainly have to follow along to the beat for the verses and bridge)
All the credit goes to the tab on songsterr.com; I just transcribed it.

Intro
(phone vibrating)
G|-------------------------------------------------|
D|-------------------------------------------------|
A|---10~----------10~----------10~---------10~-----| (Pause for Handclapping)
E|-------------------------------------------------|

G|----------------------------------------|
D|---------------------------4--4\--------|
A|----------------------------------------|
E|---2~------0--2--0--2--0----------------|

Verse 1
G|----------------------------------------------------------------|
D|------------------------2--3------------------------------------|
A|---2--2-----2--2-----2--------4~-----4~----2--3---4-------4--5--|
E|----------------------------------------------------------------|
Are you worth your weight in gold? 'Cause you're behind my eyelids when I'm all alone

G|--------------------------------------------------------------------------|
D|------------------------------------------------------2--3----------------|
A|--4--0--2----2------0--1---2-----1--0----4----4----------------4--2---0---|
E|--------------------------------------------------------------------------|
Hey stranger, I want you to catch me like a cold. You've got both of your guns, when you 
shoot I think I'd duck

Prechorus
G|--------------------------------------------------------------------------|
D|---------------------------------------------------0----------------------|
A|---2----2----4--0-----------------2--3---4---4--------0-----------2---0--2|
E|-------------------2----2------2-------------------------2----2-----------|
I led the revolution in my bedroom and I set all the zippers free.

G|---------------------------------------------------------------------|
D|-----------------------------------------------------------------4\--|
A|---2-----4--0---------------------2--3---4----4----4----4\-----------|
E|------------------2-----2-----2--------------------------------------|
We said "No more war, no more clothes! Give me peace. Oh kiss me!"

Chorus
G|-------------------------------6---6---6--6-----6------7----7----7--7----7|
D|4---4---4----4--4-----4---------------------------------------------------|
A|---------------------------4----4----4------4------5----5----5-------5----|
E|--2---2----2----2--------2------------------------------------------------|
Hey Hey! We are a hurricane. Drop our anchors in a storm.

G|-----------------------------------------------------6----6----6--6----6--|
D|----7----7----6----6--6-----4----4----4--4---4----------------------------|
A|-------------------------------------------------4----4----4------4-------|
E|--5----5----4----4--------2----2----2----2--------------------------------|
                           Hey! We will never be the same. A fire in the flask to keep us warm.

G|----7----7----7--7----7--------------------------|
D|---------------------------7----7----6----6--6---|
A|--5----5----5------5-----------------------------|
E|------------------------5----5----4----4---------|


G|-------------------------6---6---6--6---6----------------------6----6----6--6---6--|
D|---4---4----4--4----4-----------------------4---4---4----4-------------------------|
A|----------------------4---4---4-----4-----------------------4----4----4------4-----|
E|2---2---2-----2------------------------*-2---2---2----2----------------------------|
'Cause they know, I know that they don't look like me. Oh they know, I know, that they 
don’t sound like me.


G|---7----7----7--7----7------------------------------------------------|
D|----------------------------------------------------------------------|
A|-5----5----5-------5--------7---7---7---7---7---7---7---7----9\-------|
E|----------------------------------------------------------------------|
* (Oh they know I know that they don't sound like me part) --Then

G|----------------------------------------------------------------------------|
D|---------------------------------2---2--4\-------------------0-2-4-4-4-4----|
A|----------------------------------------------------------------------------|
E|--2---2---2---0---2---2---2---2------------2--2--2--0--2--2-----------------|
*claps claps* You'll dance to anything! You'll dance to anything!!

[REST]
Oh I confess, I confess--

Verse 2
G|-------------------11\--------------------------------------------|
D|--0--2--4--4--4---------------------------------------------------|
A|-----------------------4----4---0--2--4-----4--5--4--0------------|
E|---------------------------------------------------------2---2----|
-- to the rumor of us.   But he didn't come and speak to me or put my heart at ease.


G|-----------------------------------------------------------|
D|-----------------------------------------------------------|
A|--0--1--2---2----1---0------------2--3---4---2---0---------|
E|-------------------------4---4------------------------4----|
And I believe that half the time, I am the wolf among the sheep gnawing at the wool over my eyes

[PRECHORUS/CHORUS]

[REST]

Bridge
G|-------------------------------------------------------------------------|
D|-------------------------------------------------------------------------|
A|----------2--2--2--2--2--------------------4--4--4--4--4---------0--0--0-|
E|-2/14\2-------------------2--2--2--2--2--------------------2--2----------|
Fix me or conflict me, I'll take anything.

G|--------------------------------------------------------------------------|
D|--------------------------------------------------------------------------|
A|--2-2-2-2-2------------4-4-4-4-4-------4-4-4-4-4-4-4-4-4-4-4-4-4-4-4-4----|
E|-------------2-2-2-2-2----------------------------------------------------|
Fix me or just conflict me, 'cause I'll take anything.

G|-------------|
D|-------------|
A|-------------|                        [CHORUS]
E|--2----2-----|
(Hey Hey!)

End
comments
print report bad tab
1 comment total.
+2 reply
FallOutGirlPATD wrote on December 5 2013, 08:40 pm

This tab sounds good to me! The only thing is I can't follow it with the song, the rhythm gets lost at times...And I'm new to the bass so I'm quite slow

I want to post or [tab]
guest
You may want to rate the tab now too:
select rating
Please do not post tabs as comments. Select "correction" instead!