Oops, an error
Loading. Please wait.

I Constantly Thank God For Esteban Bass Tab

version 1
version 1

Whole song

Interactive

5,450 views 15 this week
3 commentsread comments
1 2 3 4 5
x 6
add to favorites
launch autoscroll
font size
0
reset
guitar tuner
Autoscroll
slow
fast
+/-
esc
set tempo
stop
Help us to improve Ultimate-Guitar.com Take our survey!
×
Author
tabbed by: Valerie
e-mail: iloled@yahoo.com
Intro
G|---------------23--------------------------------23-----------------|   
D|-55-5-5-5-00-0----33-3-3-3-11-1-3--55-5-5-5-00-0----33-3-3-3-111-000|   
A|--------------------------------------------------------------------|   
D|--------------------------------------------------------------------| x2

Verse: "Give us this day..."
G|--------------------------------------------------------|   
D|-5-53-31-1-0-0-0-5--1-10-0-5-53-31-1-0-00-5-0-0-0000-0~-|   
A|--------------------------------------------------------|   
D|--------------------------------------------------------| 

Chorus:
G|----------------------------------------------------------------|   
D|-55-555-555-555-333-333-333-333-111-111-111-111-000-000-000-000-|   
A|----------------------------------------------------------------|   
D|----------------------------------------------------------------| x2

"Just stay where I can see you..."
G|-----------------------------|   
D|-5~--------------------------|   
A|--------------1/5-55-33-11-00|   
D|----5--3-5~------------------| 

Verse: 
G|-----------------------------------------------------------------------|   
D|-5-53-31-1-0-0-0-5--1-10-0-55-55-5-33-33-3-11-11-1-00-00-0-0-0-0-00-0~-|   
A|-----------------------------------------------------------------------|   
D|-----------------------------------------------------------------------|

Chorus x2

Bridge
G|--------------------------------------------------------------------------------   
D|-----------------5-53-------------55-5333-311-1-1111----------------55555533333-   
A|-3-33-333-3-3-3--------------------------------------3-33-333-3-3-3-------------   
D|----------------------0~-0~-0~-0~-----------------------------------------------

---------------------------------------------------------|
-------------55-5333-311-1-1111-00000000000000-5---5-5-5-|
---------------------------------------------------------|
-0~-0~-0~-0~---------------------------------------------|

Chorus:
G|---------------------------------------------------------------|
D|---------------------------------------------------------------|
A|---------------------------------------------------------------|
D|-55-555-555-555-333-333-333-333-111-111-111-111-000-000-000-000| x3

end last part with
G|-----------|
D|-----------|
A|-----------|
D|-0-0-00-0~-|

Suggest correction
comments
print report bad tab
3 comments total.
0 reply
vulock_ka 10 Feb 07, 2008 09:40 PM

baho ni kelvin..

0 reply
Sidtheboon 149 Jun 02, 2010 02:01 PM

Whoever rated this tab low clearly can't play bass for shit, this tab is perfect

0 reply
PwnzoneX1 10 Jan 05, 2014 01:06 AM

Great job, however, I think the intro sounds better as
G|-------------2232-------------------------------2232----------------|
D|55-5-5-5-00-0----33-3-3-3\11-1/4-4/55-5-5-5-00-0----33-3-3-3-111-000|
A|--------------------------------------------------------------------|
D|--------------------------------------------------------------------|

and in the verse, I prefer to play it as
G|--------------------------------------------------------------------|
D|5--54--41--1-0--00-5--5----1--10--0-5--54--41--10--00-5-0-0-0000-0~-|
A|--------------------------------------------------------------------|
D|--------------------------------------------------------------------|

guest
You may want to rate the tab now too:
select rating
Wanna post a correction for this tab? Suggest correction