Oops, an error
Loading. Please wait.

I Constantly Thank God For Esteban Tab

version 2
version 2

Whole song

Interactive

2,599 views 6 this week
no commentswrite comment
1 2 3 4 5
please rate
add to favorites
launch autoscroll
font size
0
reset
how to read this tab
guitar tuner
Autoscroll
slow
fast
+/-
esc
set tempo
stop
Help us to improve Ultimate-Guitar.com Take our survey!
×
Author
\=slide down


E|--------------------------------------------------|
B|--------------------------------------------------|
G|--------------------------------------------------|
D|--------------------------------------------------|
A|--------------------------------------------------|
D|-5-5-5-5--5-0-0--0-7-8--3-3-3-3-3-1-1-4-4---------|

(0:06)
E|--------------------------------------------------|
B|--------------------------------------------------|
G|--------------------------------------------------|
D|--------------------------------------------------|
A|--------------------------------------------------|
D|-5-5-5-5--5-0-0--0-7-8-3-3-3-3-3-1-1-1-0-0-0------|

(0:11)
E|--------------------------------------------------|
B|--------------------------------------------------|
G|--------------------------------------------------|
D|--------------------------------------------------|
A|—0-8-6-5-0-8-5-5-0-8-6-5--0-5-0-5-----------------|
D|-5--------4---------3---------5----4--------------|

(0:17)
E|--------------------------------------------------|
B|--------------------------------------------------|
G|--------------------------------------------------|
D|---------------------------------8-8-8-7-7-7—-----|
A|—-0-8-6-5--0-8-5-5---0-8-6-5-----8-8-8-7-7-7------|
D|-5--------4---------3------------8-8-8-7-7-7—-----|

(0:30)
E|--------------------------------------------------|
B|--------------------------------------------------|
G|--------------------------------------------------|
D|-5------------------------------------------------|
A|-5------------------------------------------------|
D|-5------------------------------------------------|

(0:41)
E|--------------------------------------------------|
B|--------------------------------------------------|
G|--------------------------------------------------|
D|-5-5-5-5-5-5--------------------------------------|
A|-5-5-5-5-5-5--------------------------------------|
D|-5-5-5-5-5-5--------------------------------------|
(0:49)
E|-----------------------------------------|
B|-----------------------------------------|
G|-----------------------------------------|
D|-5-5--5-5-5--5-5-5--5-5-5--5-3-3--3-3-3--|
A|-5-5--5-5-5--5-5-5--5-5-5--5-3-3--3-3-3--|
D|-5-5--5-5-5--5-5-5--5-5-5--5-3-3--3-3-3--|

E|------------------------------------------|
B|------------------------------------------|
G|------------------------------------------|
D|3-3-3--3-3-3--3-1-1--1-1-1--1-1-1--1-1-1--|
A|3-3-3--3-3-3--3-1-1--1-1-1--1-1-1--1-1-1--|
D|3-3-3--3-3-3--3-1-1--1-1-1--1-1-1--1-1-1--|


E|-----------------------------------------------|
B|-----------------------------------------------|
G|-----------------------------------------------|
D|-0--0-0-0-0------------------------------------|
A|-0--0-0-0-0------------------------------------|
D|-0--0-0-0-0------------------------------------|

(1:00)
E|-----------------------------------------|
B|-----------------------------------------|
G|-----------------------------------------|
D|-5-5--5-5-5--5-5-5--5-5-5--5-3-3--3-3-3--|
A|-5-5--5-5-5--5-5-5--5-5-5--5-3-3--3-3-3--|
D|-5-5--5-5-5--5-5-5--5-5-5--5-3-3--3-3-3--|

E|---------------------------------------------|
B|---------------------------------------------|
G|---------------------------------------------|
D|3-3-3--3-3-3--3-1-1--1-1-1--1-1-1--1-1-1-----|
A|3-3-3--3-3-3--3-1-1--1-1-1--1-1-1--1-1-1-----|
D|3-3-3--3-3-3--3-1-1--1-1-1--1-1-1--1-1-1-----|


E|-----------------------------------------------|
B|-----------------------------------------------|
G|-----------------------------------------------|
D|-0--0-0-0-0------------------------------------|
A|-0--0-0-0-0------------------------------------|
D|-0--0-0-0-0------------------------------------|

(1:14)
E|------------------------------------------------|
B|------------------------------------------------|
G|------------------------------------------------|
D|-5-3-5------------------------------------------|
A|-5-3-5------------------------------------------|
D|-5-3-5------------------------------------------|

(1:30)
E|-------|
B|-------|
G|-------|
D|-5-----|
A|-5-----|
D|-5-----|

(1:46)
E|-----------------|
B|-----------------|
G|-----------------|
D|-5-5--5-5-5-5----|
A|-5-5--5-5-5-5----|
D|-5-5--5-5-5-5----|

(1:52)
E|-----------------------------------------|
B|-----------------------------------------|
G|-----------------------------------------|
D|-5-5--5-5-5--5-5-5--5-5-5--5-3-3--3-3-3--|
A|-5-5--5-5-5--5-5-5--5-5-5--5-3-3--3-3-3--|
D|-5-5--5-5-5--5-5-5--5-5-5--5-3-3--3-3-3--|

E|---------------------------------------------|
B|---------------------------------------------|
G|---------------------------------------------|
D|3-3-3--3-3-3--3-1-1--1-1-1--1-1-1--1-1-1-----|
A|3-3-3--3-3-3--3-1-1--1-1-1--1-1-1--1-1-1-----|
D|3-3-3--3-3-3--3-1-1--1-1-1--1-1-1--1-1-1-----|


E|-----------------------------------------------|
B|-----------------------------------------------|
G|-----------------------------------------------|
D|-0--0-0-0-0------------------------------------|
A|-0--0-0-0-0------------------------------------|
D|-0--0-0-0-0------------------------------------|
(2:03)
E|-----------------------------------------|
B|-----------------------------------------|
G|-----------------------------------------|
D|-5-5--5-5-5--5-5-5--5-5-5--5-3-3--3-3-3--|
A|-5-5--5-5-5--5-5-5--5-5-5--5-3-3--3-3-3--|
D|-5-5--5-5-5--5-5-5--5-5-5--5-3-3--3-3-3--|

E|---------------------------------------------|
B|---------------------------------------------|
G|---------------------------------------------|
D|3-3-3--3-3-3--3-1-1--1-1-1--1-1-1--1-1-1-----|
A|3-3-3--3-3-3--3-1-1--1-1-1--1-1-1--1-1-1-----|
D|3-3-3--3-3-3--3-1-1--1-1-1--1-1-1--1-1-1-----|


E|-----------------------------------------------|
B|-----------------------------------------------|
G|-----------------------------------------------|
D|-0--0-0-0-0------------------------------------|
A|-0--0-0-0-0------------------------------------|
D|-0--0-0-0-0------------------------------------|

(2:18)
E|-------------------------------------------|
B|-------------------------------------------|
G|-------------------------------------------|
D|-------------0-8-0-8-0-8-0-8-5--5-5-3--3-3-|
A|-------------0-8-0-8-0-8-0-8-5--5-5-3--3-3-|
D|-5--5-3--3---0-8-0-8-0-8-0-8-5--5-5-3--3-3-|

E|--------------------------------------------|
B|--------------------------------------------|
G|--------------------------------------------|
D|1––1–1-1-1-1-1—--5-5-5-5-5-5-5-5-5----------|
A|1–-1-1-1-1-1-1---5-5-5-5-5-5-5-5-5----------|
D|1–-1-1-1-1-1-1---5-5-5-5-5-5-5-5-5----------|

(2:29)
E|------------------------------------------|
B|------------------------------------------|
G|------------------------------------------|
D|----0----0-8-0-8-0-8-0-8--5--5-5--3--3-3--|
A|––0------0-8-0-8-0-8-0-8--5--5-5--3--3-3--|
D|-5----0--0-8-0-8-0-8-0-8--5--5-5--3--3-3--|


E|------------------------------------------------|
B|------------------------------------------------|
G|------------------------------------------------|
D|1––1–1-1-1-1-1—-5---------------------5---------|
A|1–-1-1-1-1-1-1--5---------------------5---------|
D|1–-1-1-1-1-1-1--5---------------------5---------|

(2:41)
No guitar

(2:51)
E|-----------------------------------------|
B|-----------------------------------------|
G|-----------------------------------------|
D|-5-5--5-5-5--5-5-5--5-5-5--5-3-3--3-3-3--|
A|-5-5--5-5-5--5-5-5--5-5-5--5-3-3--3-3-3--|
D|-5-5--5-5-5--5-5-5--5-5-5--5-3-3--3-3-3--|

E|---------------------------------------------|
B|---------------------------------------------|
G|---------------------------------------------|
D|3-3-3--3-3-3--3-1-1--1-1-1--1-1-1--1-1-1-----|
A|3-3-3--3-3-3--3-1-1--1-1-1--1-1-1--1-1-1-----|
D|3-3-3--3-3-3--3-1-1--1-1-1--1-1-1--1-1-1-----|


E|------------|
B|------------|
G|------------|
D|-0--0-0-0-0-|(3x)
A|-0--0-0-0-0-|
D|-0--0-0-0-0-|

(3:15)
E|--------------------------------------------------|
B|--------------------------------------------------|
G|--------------------------------------------------|
D|--------------------------------------------------|
A|-------------------------------------------5------|   
D|-5-7-5-3-8--5-7-5-3-8-5-3--5-7-5-3—5-7-5----------|


E|-----------------------------------------|
B|-----------------------------------------|
G|-----------------------------------------|
D|-----------------------------------------|
A|----5------------------------------------|
D|-3—--8--1-1-1-1-3-3-3-3-5-5-5-5-7-7-7-7—-|

E|---------|
B|---------|
G|---------|
D|-5-5-5\4-|
A|-5-5-5\4-|
D|-5-5-5\4-|
Suggest correction
Give kudos to tab author, rate the tab!
1 2 3 4 5
comments
print report bad tab
guest
You may want to rate the tab now too:
select rating
Wanna post a correction for this tab? Suggest correction