Oops, an error
Loading. Please wait.
We have an official I Write Sins Not Tragedies tab made by UG professional guitarists. Check out the tab »
×
152,770 views 90 this week
167 commentsread comments
1 2 3 4 5
x 43
add to favorites
×
Save as Personal and add changes to this tab that will be seen only by you. Learn more ›
×
You can save this tab as Personal to edit and correct it or add notes. All changes will be seen only by you. Learn more »
launch autoscroll
font size
0
reset
how to read this tab
guitar tuner
backing track
0:00
0:00
edit
Autoscroll
slow
fast
+/-
esc
set tempo
stop
----------------------------------------------------
 "I Write Sins Not Tragedies" - Panic at the Disco
----------------------------------------------------
Tabbed by: Justin RiRaY
Email: Pakman7JR@hotmail.com       AIM: BeatPwner

Tuning: eBGDAD (Drop-D)


[Intro]
 
e|--------------------------------|
B|--------------------------------|
G|----5--4---5--4---5--4---5--4---|
D|---2--2---2--2---2--2---2--2----|
A|--0------0------0------0--------|
D|--------------------------------|
    ... .. ... .. ... .. ... ..
 

 
e|-------------------------------------------|
B|-----3---------3---------------------------|
G|---5---5-4---5---5-4---4-5-4-5---4-5-4-5---|
D|-4---------4---------3---------3-----------|
A|-------------------------------------------|
D|-------------------------------------------|
   . . . . . . . . . . . . . . . . . . . .


[Chorus]
 
e|---------------|
B|---------------|
G|--2------------|
D|--2--3--0------|
A|--0--3--0------|
D|-----3--0------|


[Post-Chorus]

e|--------------------------------|
B|--------------------------------|
G|-----7-4------5-7-----4-5-------|
D|--3--7-4---3--5-7---3-4-5---3---|
A|--3--5-2---3--3-5---3-2-3---3---|
D|--3--------3--------3-------3---|


[Outro]
 
e|----------------------------------------|
B|----------------------------------------|
G|-----7-4---------------4-5--------------|
D|--3--7-4---3--5-0---3--4-5---3--5-0---3-|
A|--3--5-2---3--5-0---3--2-3---3--5-0---3-|
D|--3--------3--5-0---3--------3--5-0---3-|

            
            
Suggest correction
Creating personal tab
Creating personal tab
You can edit any tab online and save it as your Personal.

You can edit, replace or remove any tab part or add personal notes – all changes will be seen only by you.

Personal tabs can be accessed anytime from any device, even offline.
Learn more »
comments
print report bad tab
167 comments total. Showing first comments.
0 reply
prem 82 Nov 01, 2005 04:51 AM

the tab's not very accurate. there are at least two (possibly 3) distinct parts to the pizzicato string section being played simultaneously.

+2 reply
RiRaY 1,418 Nov 01, 2005 01:44 PM

its meant for one guitar.. I didn't tab it to the max. I just wanted to provide a frame for the basic melody. I know there are more notes in the background. Go tab it then.

0 reply
helpless rocker 10 Jan 30, 2006 08:16 AM

Stroppy arse!

guest
You may want to rate the tab now too:
select rating
Wanna post a correction for this tab? Suggest correction