Oops, an error
Loading. Please wait.

I Write Sins Not Tragedies Chords

version 2
version 2

Whole song

Interactive

311,280 views 1,737 this week
18 commentsread comments
1 2 3 4 5
excellent!
x 224
add to favorites
launch autoscroll
font size
0
reset
transpose
0
reset
display chords
guitar tuner
Autoscroll
slow
fast
+/-
esc
set tempo
stop
Help us to improve Ultimate-Guitar.com Take our survey!
×
Author
I took this from the previous guy (no offense, his lines were all screwed up so I 
fixed it) so don't thank me thank him (:

Panic At The Disco - I Write Sins Not Tragedies

[Intro]
(it's meant to be drop-d but it really doesn't matter if you're just playing 
the intro this way) 
can be played through the verses if duet...ing

e|-------------------------------------------------------------------------|
b|-------------------------------------------------------------------------|
g|-------5---4--------5---4-------5--4-------5--4--------------------------|
d|-----2---2-------2----2-------2---2------2---2---------------------------|
a|---0-----------0------------0----------0---------------------------------|
D|-------------------------------------------------------------------------|

e|-------------------------------------------------------------------------|
b|-------3------------3------------1---1-------1---1-----------------------|
g|-----5---5-4------5---5-4------4---4-------4---4-------------------------|
d|---4------------4------------3-----------3-------------------------------|
a|-------------------------------------------------------------------------|
D|-------------------------------------------------------------------------|


[Verse 1]

Am
Oh, well imagine, as I'm pacing the pews in a church corridor, and I
Dm                                              F (let it ring for acoustic)
can't help but to hear, no I can't help but to hear an exchanging of words:

Am
"What a beautiful wedding! What a beautiful wedding!" says a bridesmaid to a waiter. (yes)
Dm                                        F                  (shh)
"but what a shame, what a shame, the poor groom's bride is a whore."


[Chorus]
                             
Am                     G                    Dm                (F)
I chime in with a "Haven't you people ever heard of closing a goddamn door?!"

Am             G                   Dm                              F
No, it's much better to face these kinds of things with a sense of poise and rationality.

Am                     G                    Dm                (F)
I chime in with a "Haven't you people ever heard of closing a goddamn door?!"

Am             G                   Dm                            
No, it's much better to face these kinds of things with a sense of...


[Verse 2]
                                                                          
Am       
Oh, Well in fact, well I'll look at it this way, I mean technically our marriage is saved
Dm                               F
Well this calls for, a toast so, pour the champagne
                                                                              
Am
Oh! Well in fact, well I'll look at it this way, I mean technically our marriage is saved

Dm                            F
Well this calls for a toast, so pour the champagne, pour the champagne


[Chorus]

Am                     G                    Dm                (F)
I chime in with a "Haven't you people ever heard of closing a goddamn door?!"

Am             G                   Dm                              F
No, it's much better to face these kinds of things with a sense of poise and rationality.


[Bridge]

 Am   F   F
 Again...


[Chorus]

Am                     G                    Dm                (F)
I chime in with a "Haven't you people ever heard of closing a goddamn door?!"

Am             G                   Dm                              F
No, it's much better to face these kinds of things with a sense of poise and rationality.

Am                     G                    Dm                (F)
I chime in with a "Haven't you people ever heard of closing a goddamn door?!"

Am             G                   Dm                              F
No, it's much better to face these kinds of things with a sense of poise and rationality.


[Optional outro]

Am             G                   Dm             (draw out the of)  Am
No, it's much better to face these kinds of things with a sense of 
Suggest correction
What's this?
You can suggest a correction to this tab. Community and Mods will review your correction and vote to approve or reject it.
comments
print report bad tab
18 comments total. Showing first comments.
+3 reply
Randomrockfan 417 wrote on January 7 2009, 11:24 pm

Hey it's me again:
You can also play the intro like this:

e|------------------------------------------------------------------|
b|------------------------------------------------------------------|
g|-------5---4--------5---4-------5--4-------5--4-------------------|
d|-----2---2-------2----2-------2---2------2---2--------------------|
a|---0-----------0------------0----------0--------------------------|
e|------------------------------------------------------------------|

e|------------------------------------------------------------------|
b|-------3---0--------3---0--------1---1-------1---1----------------|
g|-----5---5--------5---5--------4---4-------4---4------------------|
d|---4------------4------------3-----------3------------------------|
a|------------------------------------------------------------------|
e|------------------------------------------------------------------|

(the drop-d part doesn't matter at all)
the third part of the riff can be played as B open instead of G 4th
makes it easier

0 reply
rock_your_lips 13 wrote on February 27 2009, 01:11 pm

sorry,but how you play this song?
i mean.
up-up-down..
or something else.
?

+3 reply
loxum 24 wrote on June 4 2010, 12:54 pm

it's not G, it's C, isn't it?

guest
You may want to rate the tab now too:
select rating
Please do not post tabs as comments. Select "correction" instead!