Oops, an error
Loading. Please wait.
We have an official I Write Sins Not Tragedies tab made by UG professional guitarists. Check out the tab »
×
2,419 views 84 this week
2 commentsread comments
1 2 3 4 5
x 3
add to favorites
×
Save as Personal and add changes to this tab that will be seen only by you. Learn more ›
×
You can save this tab as Personal to edit and correct it or add notes. All changes will be seen only by you. Learn more »
launch autoscroll
font size
0
reset
how to read this tab
guitar tuner
backing track
0:00
0:00
edit
Autoscroll
slow
fast
+/-
esc
set tempo
stop
Tuning: C#^ (C#^ F#^ B^ E^ G#^ C#^) (Explained down below)

Hi guys, a friend of mine asked me if I could make this version. It's the version Brandom does on the radio 
on this video: https://www.youtube.com/watch?v=JPMzRAqrv9o

Tuning: Really weird tuning as he might have done it without a tuner
Suposed to be C sharp (C#) though it sound a little bit higher. So I turned the chords a liitle bit more 
higher than C#. I've recorded the tuning sample here: http://bit.ly/1STKbCX
 
(Fmaj7/C) (F)   
  -0-     -1-
  -1-     -1-
  -2-     -2-
  -3-     -3-
  -3-     ---
  ---     ---


[Intro]

    \ \   \ / \ /      
C#|-X-X---X-X-X-X-|
G#|-X-X---X-X-X-X-|
 E|-X-X---X-X-X-X-|
 B|-X-X---X-X-X-X-|
F#|-X-X---X-X-X-X-|
C#|-X-X---X-X-X-X-|

C#|--------0---0-0-0------------0---0-0-0----|
G#|--------1---0-0-0------------1---0-0-0----|
 E|--------2---2-2-2------------2---2-2-2----|
 B|--------2---2-2-2------------2---2-2-2----| x2
F#|--0h3------------------0h3----------------|
C#|------------------------------------------|

C#|-------5---3-3-3-----------5---3-3-3-----|
G#|-------3---3-3-3-----------3---3-3-3-----|
 E|-------4---4-4-4-----------4---4-4-4-----|
 B|---4---4---4-4-4-------4---4---4-4-4-----|
F#|--0-------------------0------------------|
C#|-----------------------------------------|

                                          \ / \ /  \ / /  \ / \ /  \ /
C#|-------3---1-1-1-----------3---1-1-1---1-1-1-1--1-1-1--1-1-1-1--1-1-|
G#|-------1---1-1-1-----------1---1-1-1---1-1-1-1--1-1-1--1-1-1-1--1-1-|
 E|-------2---2-2-2-----------2---2-2-2---2-2-2-2--2-2-2--2-2-2-2--2-2-|
 B|---3---3---3-3-3-------3---3---3-3-3---3-3-3-3--3-3-3--3-3-3-3--3-3-|
F#|--0-------------------0---------------------------------------------|
C#|--------------------------------------------------------------------|


[Verse]

C#|--------0---0-0-0------------0---0-0-0----|
G#|--------1---0-0-0------------1---0-0-0----|
 E|--------2---2-2-2------------2---2-2-2----|
 B|--------2---2-2-2------------2---2-2-2----| x2
F#|--0h3------------------0h3----------------|
C#|------------------------------------------|

C#|-------5---3-3-3-----------5---3-3-3------|
G#|-------3---3-3-3-----------3---3-3-3------|
 E|-------4---4-4-4-----------4---4-4-4------|
 B|---4---4---4-4-4-------4---4---4-4-4------|
F#|--0-------------------0-------------------|
C#|------------------------------------------|

                                          \ /
C#|-------3---1-1-1-----------3---1-1-1---1-1-|
G#|-------1---1-1-1-----------1---1-1-1---1-1-|
 E|-------2---2-2-2-----------2---2-2-2---2-2-|
 B|---3---3---3-3-3-------3---3---3-3-3---3-3-|
F#|--0-------------------0--------------------|
C#|-------------------------------------------|

C#|--------0---0-0-0------------0---0-0-0----|
G#|--------1---0-0-0------------1---0-0-0----|
 E|--------2---2-2-2------------2---2-2-2----|
 B|--------2---2-2-2------------2---2-2-2----| x2
F#|--0h3------------------0h3----------------|
C#|------------------------------------------|

C#|-------5---3-3-3-----------5---3-3-3------|
G#|-------3---3-3-3-----------3---3-3-3------|
 E|-------4---4-4-4-----------4---4-4-4------|
 B|---4---4---4-4-4-------4---4---4-4-4------|
F#|--0-------------------0-------------------|
C#|------------------------------------------|

                                          \   \  \ /
C#|-------3---1-1-1-----------3---1-1-1---1---X--X-X-|
G#|-------1---1-1-1-----------1---1-1-1---1---X--X-X-|
 E|-------2---2-2-2-----------2---2-2-2---2---X--X-X-|
 B|---3---3---3-3-3-------3---3---3-3-3---3---X--X-X-|
F#|--0-------------------0--------------------X--X-X-|
C#|-------------------------------------------X--X-X-|


[Verse]

(Figure out the strumming)

C#|-0-0-0-0-0-0-0-0---1-1-1-1-1-1-1-1---1-1-1-1-1-1-1-1-1-1-1-1-1-1-1-1---3-3-3-0-0-0-0-0-|
G#|-1-1-1-1-1-1-1-1---1-1-1-1-1-1-1-1---3-3-3-3-3-3-3-3-3-3-3-3-3-3-3-3---0-0-0-1-1-1-1-1-|
 E|-2-2-2-2-2-2-2-2---2-2-2-2-2-2-2-2---2-2-2-2-2-2-2-2-2-2-2-2-2-2-2-2---0-0-0-2-2-2-2-2-|
 B|-2-2-2-2-2-2-2-2---3-3-3-3-3-3-3-3---0-0-0-0-0-0-0-0-0-0-0-0-0-0-0-0---0-0-0-2-2-2-2-2-|
F#|-0-0-0-0-0-0-0-0---0-0-0-0-0-0-0-0---0-0-0-0-0-0-0-0-0-0-0-0-0-0-0-0---2-2-2-0-0-0-0-0-|
C#|-0-0-0-0-0-0-0-0---0-0-0-0-0-0-0-0---0-0-0-0-0-0-0-0-0-0-0-0-0-0-0-0---3-3-3-0-0-0-0-0-|

C#|-1-1-1-1-1-1-1-1---1-1-1-1-1-1-1-1-1-1-1-1-1-1-1-1--|
G#|-1-1-1-1-1-1-1-1---3-3-3-3-3-3-3-3-3-3-3-3-3-3-3-3--|
 E|-2-2-2-2-2-2-2-2---2-2-2-2-2-2-2-2-2-2-2-2-2-2-2-2--|
 B|-3-3-3-3-3-3-3-3---0-0-0-0-0-0-0-0-0-0-0-0-0-0-0-0--|
F#|-0-0-0-0-0-0-0-0---0-0-0-0-0-0-0-0-0-0-0-0-0-0-0-0--|
C#|-0-0-0-0-0-0-0-0---0-0-0-0-0-0-0-0-0-0-0-0-0-0-0-0--|


C#|-0-0-0-0-0-0-0-0---1-1-1-1-1-1-1-1---1-1-1-1-1-1-1-1-1-1-1-1-1-1-1-1---3-3-3-0-0-0-0-0-|
G#|-1-1-1-1-1-1-1-1---1-1-1-1-1-1-1-1---3-3-3-3-3-3-3-3-3-3-3-3-3-3-3-3---0-0-0-1-1-1-1-1-|
 E|-2-2-2-2-2-2-2-2---2-2-2-2-2-2-2-2---2-2-2-2-2-2-2-2-2-2-2-2-2-2-2-2---0-0-0-2-2-2-2-2-|
 B|-2-2-2-2-2-2-2-2---3-3-3-3-3-3-3-3---0-0-0-0-0-0-0-0-0-0-0-0-0-0-0-0---0-0-0-2-2-2-2-2-|
F#|-0-0-0-0-0-0-0-0---0-0-0-0-0-0-0-0---0-0-0-0-0-0-0-0-0-0-0-0-0-0-0-0---2-2-2-0-0-0-0-0-|
C#|-0-0-0-0-0-0-0-0---0-0-0-0-0-0-0-0---0-0-0-0-0-0-0-0-0-0-0-0-0-0-0-0---3-3-3-0-0-0-0-0-|

C#|-1-1-1-1-1-1-1-1---1-1-1-1-1-1-1-1-1-1-1-1-1-1-1-1--|
G#|-1-1-1-1-1-1-1-1---3-3-3-3-3-3-3-3-3-3-3-3-3-3-3-3--|
 E|-2-2-2-2-2-2-2-2---2-2-2-2-2-2-2-2-2-2-2-2-2-2-2-2--|
 B|-3-3-3-3-3-3-3-3---0-0-0-0-0-0-0-0-0-0-0-0-0-0-0-0--|
F#|-0-0-0-0-0-0-0-0---0-0-0-0-0-0-0-0-0-0-0-0-0-0-0-0--|
C#|-0-0-0-0-0-0-0-0---0-0-0-0-0-0-0-0-0-0-0-0-0-0-0-0--|


[Verse]

(Ok, so here he makes it sound like the first verse though instead of makeing hammer 
(Exp. 0h3) he just strums the upper part of the guitar and then the bottm part)


C#|--------0---0-0-0------------0---0-0-0----|
G#|--------1---0-0-0------------1---0-0-0----|
 E|--2-2---2---2-2-2-------2-2--2---2-2-2----|
 B|--2-2---2---2-2-2-------2-2--2---2-2-2----| x2
F#|--0-0-------------------0-0---------------|
C#|------------------------------------------|

C#|-------5---3-3-3------------5---3-3-3------|
G#|-------3---3-3-3------------3---3-3-3------|
 E|--4-4--4---4-4-4-------4-4--4---4-4-4------|
 B|--4-4--4---4-4-4-------4-4--4---4-4-4------|
F#|--0-0------------------0-0-----------------|
C#|-------------------------------------------|
                                       
                                          \ / \ /  \ / /  \ / \ /  \ /
C#|-------3---1-1-1-----------3---1-1-1---1-1-1-1--1-1-1--1-1-1-1--1-1-|
G#|-------1---1-1-1-----------1---1-1-1---1-1-1-1--1-1-1--1-1-1-1--1-1-|
 E|--2----2---2-2-2------2----2---2-2-2---2-2-2-2--2-2-2--2-2-2-2--2-2-|
 B|--3----3---3-3-3------3----3---3-3-3---3-3-3-3--3-3-3--3-3-3-3--3-3-|
F#|--0-------------------0---------------------------------------------|
C#|--------------------------------------------------------------------|

C#|--------0---0-0-0------------0---0-0-0----|
G#|--------1---0-0-0------------1---0-0-0----|
 E|--2-2---2---2-2-2-------2-2--2---2-2-2----|
 B|--2-2---2---2-2-2-------2-2--2---2-2-2----| x2
F#|--0-0-------------------0-0---------------|
C#|------------------------------------------|

C#|-------5---3-3-3------------5---3-3-3------|
G#|-------3---3-3-3------------3---3-3-3------|
 E|--4-4--4---4-4-4-------4-4--4---4-4-4------|
 B|--4-4--4---4-4-4-------4-4--4---4-4-4------|
F#|--0-0------------------0-0-----------------|
C#|-------------------------------------------|
                                       
                                          \ / \ / \ /  \ / \ / \ /
C#|-------3---1-1-1-----------3---1-1-1---1-1-1-1-1-1--1-1-1-1-1-1-|
G#|-------1---1-1-1-----------1---1-1-1---1-1-1-1-1-1--1-1-1-1-1-1-|
 E|--2----2---2-2-2------2----2---2-2-2---2-2-2-2-2-2--2-2-2-2-2-2-|
 B|--3----3---3-3-3------3----3---3-3-3---3-3-3-3-3-3--3-3-3-3-3-3-|
F#|--0-------------------0-----------------------------------------|
C#|----------------------------------------------------------------|

     \ \ / /   \ /    \ \ / /   \ /
C#|--0-0-0-0---0-0----0-0-0-0---0-0-|
G#|--1-1-1-1---1-1----1-1-1-1---1-1-|
 E|--2-2-2-2---2-2----2-2-2-2---2-2-|
 B|--3-3-3-3---3-3----3-3-3-3---3-3-|
F#|--3-3-3-3---3-3----3-3-3-3---3-3-|
C#|---------------------------------|

     \ \ / /   \ /    \ \ / /   \ /
C#|--3-3-3-3---3-3----33-3-3-3---3-3-|
G#|--0-0-0-0---0-0----00-0-0-0---0-0-|
 E|--0-0-0-0---0-0----00-0-0-0---0-0-|
 B|--0-0-0-0---0-0----00-0-0-0---0-0-|
F#|--2-2-2-2---2-2----22-2-2-2---2-2-|
C#|--3-3-3-3---3-3----33-3-3-3---3-3-|

     \ \ / /   \ /    \/ \ / /   \ /
C#|--0-0-0-0---0-0----00-0-0-0---0-0-|
G#|--1-1-1-1---1-1----11-1-1-1---1-1-|
 E|--2-2-2-2---2-2----22-2-2-2---2-2-|
 B|--3-3-3-3---3-3----33-3-3-3---3-3-|
F#|--3-3-3-3---3-3----33-3-3-3---3-3-|
C#|----------------------------------|

     \ \ \ \ \ \ \ \ \ \
C#|--1-1-1-1-1-1-1-1-1-1-|
G#|--3-3-3-3-3-3-3-3-3-3-|
 E|--2-2-2-2-2-2-2-2-2-2-|
 B|--0-0-0-0-0-0-0-0-0-0-|
F#|----------------------|
C#|----------------------|


[Chorus]

(SAME THING UNTIL (" With a sense of..."))

C#|-0-0-0-0-0-0-0-0---1-1-1-1-1-1-1-1---1-1-1-1-1-1-1-1-1-1-1-1-1-1-1-1---3-3-3-0-0-0-0-0-|
G#|-1-1-1-1-1-1-1-1---1-1-1-1-1-1-1-1---3-3-3-3-3-3-3-3-3-3-3-3-3-3-3-3---0-0-0-1-1-1-1-1-|
 E|-2-2-2-2-2-2-2-2---2-2-2-2-2-2-2-2---2-2-2-2-2-2-2-2-2-2-2-2-2-2-2-2---0-0-0-2-2-2-2-2-|
 B|-2-2-2-2-2-2-2-2---3-3-3-3-3-3-3-3---0-0-0-0-0-0-0-0-0-0-0-0-0-0-0-0---0-0-0-2-2-2-2-2-|
F#|-0-0-0-0-0-0-0-0---0-0-0-0-0-0-0-0---0-0-0-0-0-0-0-0-0-0-0-0-0-0-0-0---2-2-2-0-0-0-0-0-|
C#|-0-0-0-0-0-0-0-0---0-0-0-0-0-0-0-0---0-0-0-0-0-0-0-0-0-0-0-0-0-0-0-0---3-3-3-0-0-0-0-0-|

C#|-1-1-1-1-1-1-1-1---1-1-1-1-1-1-1-1-1-1-1-1-1-1-1-1--|
G#|-1-1-1-1-1-1-1-1---3-3-3-3-3-3-3-3-3-3-3-3-3-3-3-3--|
 E|-2-2-2-2-2-2-2-2---2-2-2-2-2-2-2-2-2-2-2-2-2-2-2-2--|
 B|-3-3-3-3-3-3-3-3---0-0-0-0-0-0-0-0-0-0-0-0-0-0-0-0--|
F#|-0-0-0-0-0-0-0-0---0-0-0-0-0-0-0-0-0-0-0-0-0-0-0-0--|
C#|-0-0-0-0-0-0-0-0---0-0-0-0-0-0-0-0-0-0-0-0-0-0-0-0--|


C#|-0-0-0-0-0-0-0-0---1-1-1-1-1-1-1-1---1-1-1-1-1-1-1-1-1-1-1-1-1-1-1-1---3-3-3-0-0-0-0-0-|
G#|-1-1-1-1-1-1-1-1---1-1-1-1-1-1-1-1---3-3-3-3-3-3-3-3-3-3-3-3-3-3-3-3---0-0-0-1-1-1-1-1-|
 E|-2-2-2-2-2-2-2-2---2-2-2-2-2-2-2-2---2-2-2-2-2-2-2-2-2-2-2-2-2-2-2-2---0-0-0-2-2-2-2-2-|
 B|-2-2-2-2-2-2-2-2---3-3-3-3-3-3-3-3---0-0-0-0-0-0-0-0-0-0-0-0-0-0-0-0---0-0-0-2-2-2-2-2-|
F#|-0-0-0-0-0-0-0-0---0-0-0-0-0-0-0-0---0-0-0-0-0-0-0-0-0-0-0-0-0-0-0-0---2-2-2-0-0-0-0-0-|
C#|-0-0-0-0-0-0-0-0---0-0-0-0-0-0-0-0---0-0-0-0-0-0-0-0-0-0-0-0-0-0-0-0---3-3-3-0-0-0-0-0-|

C#|-1-1-1-1-1-1-1-1---1-1-1-1-1-1-1-1-1-1-1-1-1-1-1-1-|
G#|-1-1-1-1-1-1-1-1---3-3-3-3-3-3-3-3-3-3-3-3-3-3-3-3-|
 E|-2-2-2-2-2-2-2-2---2-2-2-2-2-2-2-2-2-2-2-2-2-2-2-2-|
 B|-3-3-3-3-3-3-3-3---0-0-0-0-0-0-0-0-0-0-0-0-0-0-0-0-|
F#|-0-0-0-0-0-0-0-0---0-0-0-0-0-0-0-0-0-0-0-0-0-0-0-0-|
C#|-0-0-0-0-0-0-0-0---0-0-0-0-0-0-0-0-0-0-0-0-0-0-0-0-|


[Bridge] 

(Pose and Rationality...) 

C#|-0-0-0-0-0-0-0-0---3-3-3-3-3-3-3-3---0-0-0-0-0-0-0-0---3-3-3-3-3-3-3-3-|
G#|-1-1-1-1-1-1-1-1---0-0-0-0-0-0-0-0---1-1-1-1-1-1-1-1---0-0-0-0-0-0-0-0-|
 E|-2-2-2-2-2-2-2-2---0-0-0-0-0-0-0-0---2-2-2-2-2-2-2-2---0-0-0-0-0-0-0-0-|
 B|-3-3-3-3-3-3-3-3---0-0-0-0-0-0-0-0---3-3-3-3-3-3-3-3---0-0-0-0-0-0-0-0-|
F#|-3-3-3-3-3-3-3-3---2-2-2-2-2-2-2-2---3-3-3-3-3-3-3-3---2-2-2-2-2-2-2-2-|
C#|-0-0-0-0-0-0-0-0---3-3-3-3-3-3-3-3---0-0-0-0-0-0-0-0---3-3-3-3-3-3-3-3-|

(Agaaaaaain...)

C#|-0-0-0-0-0-0-0-0---0-0-0-0-0-0-0-0---0-0-0-0-0-0-0-0--|
G#|-1-1-1-1-1-1-1-1---1-1-1-1-1-1-1-1---1-1-1-1-1-1-1-1--|
 E|-2-2-2-2-2-2-2-2---0-0-0-0-0-0-0-0---2-2-2-2-2-2-2-2--|
 B|-3-3-3-3-3-3-3-3---2-2-2-2-2-2-2-2---3-3-3-3-3-3-3-3--|
F#|-3-3-3-3-3-3-3-3---3-3-3-3-3-3-3-3---3-3-3-3-3-3-3-3--|
C#|-0-0-0-0-0-0-0-0---3-3-3-3-3-3-3-3---3-3-3-3-3-3-3-3--|


[Chorus]

C#|-0-0-0-0-0-0-0-0---1-1-1-1-1-1-1-1---1-1-1-1-1-1-1-1-1-1-1-1-1-1-1-1---3-3-3-0-0-0-0-0-|
G#|-1-1-1-1-1-1-1-1---1-1-1-1-1-1-1-1---3-3-3-3-3-3-3-3-3-3-3-3-3-3-3-3---0-0-0-1-1-1-1-1-|
 E|-2-2-2-2-2-2-2-2---2-2-2-2-2-2-2-2---2-2-2-2-2-2-2-2-2-2-2-2-2-2-2-2---0-0-0-2-2-2-2-2-|
 B|-2-2-2-2-2-2-2-2---3-3-3-3-3-3-3-3---0-0-0-0-0-0-0-0-0-0-0-0-0-0-0-0---0-0-0-2-2-2-2-2-|
F#|-0-0-0-0-0-0-0-0---0-0-0-0-0-0-0-0---0-0-0-0-0-0-0-0-0-0-0-0-0-0-0-0---2-2-2-0-0-0-0-0-|
C#|-0-0-0-0-0-0-0-0---0-0-0-0-0-0-0-0---0-0-0-0-0-0-0-0-0-0-0-0-0-0-0-0---3-3-3-0-0-0-0-0-|

C#|-1-1-1-1-1-1-1-1---1-1-1-1-1-1-1-1-1-1-1-1-1-1-1-1--|
G#|-1-1-1-1-1-1-1-1---3-3-3-3-3-3-3-3-3-3-3-3-3-3-3-3--|
 E|-2-2-2-2-2-2-2-2---2-2-2-2-2-2-2-2-2-2-2-2-2-2-2-2--|
 B|-3-3-3-3-3-3-3-3---0-0-0-0-0-0-0-0-0-0-0-0-0-0-0-0--|
F#|-0-0-0-0-0-0-0-0---0-0-0-0-0-0-0-0-0-0-0-0-0-0-0-0--|
C#|-0-0-0-0-0-0-0-0---0-0-0-0-0-0-0-0-0-0-0-0-0-0-0-0--|


C#|-0-0-0-0-0-0-0-0---1-1-1-1-1-1-1-1---1-1-1-1-1-1-1-1-1-1-1-1-1-1-1-1---3-3-3-0-0-0-0-0-|
G#|-1-1-1-1-1-1-1-1---1-1-1-1-1-1-1-1---3-3-3-3-3-3-3-3-3-3-3-3-3-3-3-3---0-0-0-1-1-1-1-1-|
 E|-2-2-2-2-2-2-2-2---2-2-2-2-2-2-2-2---2-2-2-2-2-2-2-2-2-2-2-2-2-2-2-2---0-0-0-2-2-2-2-2-|
 B|-2-2-2-2-2-2-2-2---3-3-3-3-3-3-3-3---0-0-0-0-0-0-0-0-0-0-0-0-0-0-0-0---0-0-0-2-2-2-2-2-|
F#|-0-0-0-0-0-0-0-0---0-0-0-0-0-0-0-0---0-0-0-0-0-0-0-0-0-0-0-0-0-0-0-0---2-2-2-0-0-0-0-0-|
C#|-0-0-0-0-0-0-0-0---0-0-0-0-0-0-0-0---0-0-0-0-0-0-0-0-0-0-0-0-0-0-0-0---3-3-3-0-0-0-0-0-|

C#|-1-1-1-1-1-1-1-1---1-1-1-1-1-1-1-1-1-1-1-1-1-1-1-1-|
G#|-1-1-1-1-1-1-1-1---3-3-3-3-3-3-3-3-3-3-3-3-3-3-3-3-|
 E|-2-2-2-2-2-2-2-2---2-2-2-2-2-2-2-2-2-2-2-2-2-2-2-2-|
 B|-3-3-3-3-3-3-3-3---0-0-0-0-0-0-0-0-0-0-0-0-0-0-0-0-|
F#|-0-0-0-0-0-0-0-0---0-0-0-0-0-0-0-0-0-0-0-0-0-0-0-0-|
C#|-0-0-0-0-0-0-0-0---0-0-0-0-0-0-0-0-0-0-0-0-0-0-0-0-|


[Bridge] 

(Pose and Rationality...) 

C#|-0-0-0-0-0-0-0-0---3-3-3-3-3-3-3-3---0-0-0-0-0-0-0-0---3-3-3-3-3-3-3-3-|
G#|-1-1-1-1-1-1-1-1---0-0-0-0-0-0-0-0---1-1-1-1-1-1-1-1---0-0-0-0-0-0-0-0-|
 E|-2-2-2-2-2-2-2-2---0-0-0-0-0-0-0-0---2-2-2-2-2-2-2-2---0-0-0-0-0-0-0-0-|
 B|-3-3-3-3-3-3-3-3---0-0-0-0-0-0-0-0---3-3-3-3-3-3-3-3---0-0-0-0-0-0-0-0-|
F#|-3-3-3-3-3-3-3-3---2-2-2-2-2-2-2-2---3-3-3-3-3-3-3-3---2-2-2-2-2-2-2-2-|
C#|-0-0-0-0-0-0-0-0---3-3-3-3-3-3-3-3---0-0-0-0-0-0-0-0---3-3-3-3-3-3-3-3-|

(Agaaaaaain...)

C#|-0-0-0-0-0-0-0-0---0-0-0-0-0-0-0-0---0-0-0-0-0-0-0-0--|
G#|-1-1-1-1-1-1-1-1---1-1-1-1-1-1-1-1---1-1-1-1-1-1-1-1--|
 E|-2-2-2-2-2-2-2-2---0-0-0-0-0-0-0-0---2-2-2-2-2-2-2-2--|
 B|-3-3-3-3-3-3-3-3---2-2-2-2-2-2-2-2---3-3-3-3-3-3-3-3--|
F#|-3-3-3-3-3-3-3-3---3-3-3-3-3-3-3-3---3-3-3-3-3-3-3-3--|
C#|-0-0-0-0-0-0-0-0---3-3-3-3-3-3-3-3---3-3-3-3-3-3-3-3--|


[Outro]

(I said...)

C#|-0-0-0-0-0-0-0-0---1-1-1-1-1-1-1-1---1-1-1-1-1-1-1-1-1-1-1-1-1-1-1-1----0-----------|
G#|-1-1-1-1-1-1-1-1---1-1-1-1-1-1-1-1---3-3-3-3-3-3-3-3-3-3-3-3-3-3-3-3------1---------|
 E|-2-2-2-2-2-2-2-2---2-2-2-2-2-2-2-2---2-2-2-2-2-2-2-2-2-2-2-2-2-2-2-2--------2-------|
 B|-2-2-2-2-2-2-2-2---3-3-3-3-3-3-3-3---0-0-0-0-0-0-0-0-0-0-0-0-0-0-0-0----------2-----|
F#|-0-0-0-0-0-0-0-0---0-0-0-0-0-0-0-0---0-0-0-0-0-0-0-0-0-0-0-0-0-0-0-0------------0---|
C#|-0-0-0-0-0-0-0-0---0-0-0-0-0-0-0-0---0-0-0-0-0-0-0-0-0-0-0-0-0-0-0-0--------------0-|




**************************************
|x     dead note
|h     hammer-on
|/     strum upwards (Up)
|\     strum downwards (Down) 
**************************************
Suggest correction
Creating personal tab
Creating personal tab
You can edit any tab online and save it as your Personal.

You can edit, replace or remove any tab part or add personal notes – all changes will be seen only by you.

Personal tabs can be accessed anytime from any device, even offline.
Learn more »
Give kudos to tab author, rate the tab!
1 2 3 4 5
comments
print report bad tab
2 comments total.
0 reply
Sheeploxx 21 Apr 25, 2016 05:59 AM

For the record his name is not Brandon, his name is Brendon

guest
You may want to rate the tab now too:
select rating
Wanna post a correction for this tab? Suggest correction