Oops, an error
Loading. Please wait.

Intermission Tab

version 1
version 1

Whole song

Interactive

3,835 views 9 this week
no commentswrite comment
1 2 3 4 5
please rate
add to favorites
launch autoscroll
font size
0
reset
how to read this tab
guitar tuner
Autoscroll
slow
fast
+/-
esc
set tempo
stop
Help us to improve Ultimate-Guitar.com Take our survey!
×
Author
                  Panic! At The Disco
                    "Intermission"
               A Fever You Can't Sweat Out

Standard tuning (eBGDAE)


Part 1 (x2)
e|---------------7------------------------------5-------------------3---------|
B|--------8--------8------8-----------------------5-------------------3-------|
G|----------9----------------9----------------5-------------------4-----------|
D|------9-----9--------9--------9---------------------------------------------|
A|---------------------------------------0------------------------------------|
E|--0-------------------------------------------------------3-----------------|


e|----------------------------------------------------------------------------|
B|--------2------5--2----2----------------------------------------------------|
G|----------3---------------3-------------------------------------------------|
D|------4-----4--------4-------4----------------9----------------8------------|
A|-------------------------------------------10---10-----------9---9----------|
E|-2-------------------------------------12-----------------11----------------|


e|--------------9--6----6---------------------------9-6----6------------------|
B|--------------------7----7-----------------------------7----7---------------|
G|------6-9-6-----------------6-------------6-9-6---------------6-------------|
D|------------8-----------------------------------8---------------------------|
A|-9----------------------------------9---------------------------------------|
E|----------------------------------------------------------------------------|

e|----------------------------------------------------------------------------|
B|-------------7------------------------------------7---6-----7-8-7-----------|
G|---------------8---8---6------------------3-4-5-----8---9-------------------|
D|----4-7-4-7------4---4--------------5-6-7-----------------------------------|
A|----------------------------------------------------------------------------|
E|-7--------------------------------------------------------------------------|


Part 2


e|----------------------------------------------------------------------------------------|
B|-----0-0--0-------0--0--------0-0--0------0--0--------0-0--0------0-0-----0-0-----------|
G|-----0-0--0-------0--0--------0-0--0------0--0--------0-0--0------0-0-----0-0-----------|
D|-5---2-2--2----5--2--2----5---2-2--2---5--2--2----5---2-2--2--5---2-2--5--2-2-----------|
A|-3-------------3----------4------------4----------3-----------3--------4---------4-6-7--|
E|-0-------------0----------0------------0----------0-----------0--------0----------------|


e|-----------------------------------------------------------------------------------------|
B|-----0-0--0-------0--0--------0-0--0------0--0--------0-0--0------0-0-------0--0---------|
G|-----0-0--0-------0--0--------0-0--0------0--0--------0-0--0------0-0-------0--0---------|
D|-5---2-2--2----5--2--2----5---2-2--2---5--2--2----5---2-2--2--5---2-2---5---1--1---4-5-4-|
A|-3-------------3----------4------------4----------3-----------3---------2----------6-7-6-|
E|-0-------------0----------0------------0----------0-----------0---------0----------------|

Part 3 (repeat as many times as you want, getting faster)


e|-------------------------------------------------------------------|
B|-------------------------------------------------------------------|
G|-------------------------------------------------------------------|
D|----------------7------------------------5-4-5---------------------|
A|-7--7-9-10---7----10-9----6--6-7-9----6----------------------------|
E|-0-----------0-----------------------------------------------------|

e|---------------------------------------------------------------------------|
B|---------------------------------------------------------------------------|
G|---------------------------------------------------------------------------|
D|-2-3-4--3-4-5--4-5-6--5-6-7--6-7-8--7-8-9--8-9-10--9-10-11--10-11-12-------|
A|---------------------------------------------------------------------------|
E|---------------------------------------------------------------------------|


         trill
e|---------------------------------------------------------------------------|
B|---------------------------------------------------------------------------|
G|-12---11(12)-----9-8-9--11-------------------------------------------------|
D|---------------------------------------------------------------------------|
A|---------------------------------------------------------------------------|
E|---------------------------------------------------------------------------|

Ending- Since the song just stops, I made an ending myself, you don't need to use it, 
free to change it however you want


e|-----------------------------------------------------------------------------------------|
B|-----0-0--0-------0--0--------0-0--0------0--0--------0-0--0------0-0-------0--0---------|
G|-----0-0--0-------0--0--------0-0--0------0--0--------0-0--0------0-0-------0--0---------|
D|-5---2-2--2----5--2--2----5---2-2--2---5--2--2----5---2-2--2--5---2-2---5---1--1---4-5-4-|
A|-3-------------3----------4------------4----------3-----------3---------2----------6-7-6-|
E|-0-------------0----------0------------0----------0-----------0---------0----------------|


e|----|
B|----|
G|----|
D|-2--|
A|-2--|
E|-0--|
Suggest correction
Give kudos to tab author, rate the tab!
1 2 3 4 5
comments
print report bad tab
guest
You may want to rate the tab now too:
select rating
Please do not post tabs as comments. Select "correction" instead!