Oops, an error
Loading. Please wait.

Kaleidoscope Eyes bass

572 views 9 this week
no commentswrite comment
1 2 3 4 5
x 3
add to favorites
×
Save as Personal and add changes to this tab that will be seen only by you. Learn more ›
×
You can save this tab as Personal to edit and correct it or add notes. All changes will be seen only by you. Learn more »
launch autoscroll
font size
0
reset
guitar tuner
edit
Autoscroll
slow
fast
+/-
esc
set tempo
stop
Author
Standard Tuning
This is my first tab, I couldn't find this bass tab anywhere so i did it by ear. It isnt quite accurate, 
it is hard to hear the bass over Brendon and the guitars. Best of luck everyone, contact me if there is an 
error, I will try to fix it asap.

Intro:
G|----------------------------|
D|----------------------------|
A|---3-3-3p2--0-0-0-----------|
E|------------------3-1--3/4--|

Verse: x2
G|----------------------------------------------------|
D|----------------------------------------------------|
A|--3-3~--2-3~----------------------------------------|
E|---------------3-3~---3-3h4----5-5--5-5~---1-1/4-4--|

Chorus:
G|-------------------------|
D|-------------------------|   Repeat this section x4
A|--3-33-2-0-00------------|
E|---------------3p1~--3/4-|

Solo:
G|-------------------------|
D|-------------------------|
A|--3-33-2-0-00------------|
E|--------------3/1---3/4--|

Verse: x2
G|----------------------------------------------------|
D|----------------------------------------------------|
A|--3-3~--2-3~----------------------------------------|
E|---------------3-3~---3-3h4----5-5--5-5~---1-1/4-4--|

Chorus:
G|-------------------------|
D|-------------------------|   Repeat this section x4
A|--3-33-2-0-00------------|
E|---------------3p1~--3/4-|

Bridge:
G|--------------------------------------------------------5~--3~-1~--0~--|
D|0-0-0-0-2-2-2-2-3-3-3-3-2-2-2-2-0-0-0-0-2-2-2-2-3-3-3-3----------------|
A|-----------------------------------------------------------------------|
E|-----------------------------------------------------------------------|

Chorus:
G|-------------------------|
D|-------------------------|   Repeat this section x4
A|--3~--2p0~---------------|
E|---------------1~----4~--|

            
            
Suggest correction
Creating personal tab
Creating personal tab
You can edit any tab online and save it as your Personal.

You can edit, replace or remove any tab part or add personal notes – all changes will be seen only by you.

Personal tabs can be accessed anytime from any device, even offline.
Learn more »
Give kudos to tab author, rate the tab!
1 2 3 4 5
comments
print report bad tab
guest
You may want to rate the tab now too:
select rating
Wanna post a correction for this tab? Suggest correction