Oops, an error
Loading. Please wait.

La Devotee bass

version 1
version 1

Whole song

Interactive

11,785 views 129 this week
1 commentread comment
1 2 3 4 5
x 13
add to favorites
×
Save as Personal and add changes to this tab that will be seen only by you. Learn more ›
×
You can save this tab as Personal to edit and correct it or add notes. All changes will be seen only by you. Learn more »
launch autoscroll
font size
0
reset
guitar tuner
edit
Autoscroll
slow
fast
+/-
esc
set tempo
stop
Author
Difficulty
intermediate
LA Devotee – Panic! At The Disco

Tabbed by: nten17

Tuning:EADG

Video reference of bass cover I created tab from: https://www.youtube.com/watch?v=cN5I1DkuZDQ

[Verse 1]

G|---------------------------------------------------------------|
D|---------------------------------------------------------------|
A|---------------------12-12-12-12-12-12-12-12-14-14-------------|
E|-4/9-9-9-99-99-11-12-------------------------------------------|

You’ve got two black eyes
from loving too hard…


G|---------------------------------------------------------------|
D|---------------------------------------------------------------|
A|--777-777-77---777-11-9-7-9-7-6--------------------------------|
E|-------------7-------------------------------------------------|

I wouldn’t try to change ya…


G|---------------------------------------------------------------|
D|---------------------------------------------------------------|
A|---------------------12-12-12-12-12-12-12-12-14-14-------------|
E|--9-9-9-99-99-11-12--------------------------------------------|

G|----------------------------------------------------------|
D|----------------------------------------------------------|
A|--777-777-77---777-11-9-11-9------------------------------|
E|-------------7--------------------------------------------|


[Pre-Chorus]

G|---------------------------------------------|
D|---------6-6-66-44-6---777-77-77-64----------|
A|---------------------------------------------|
E|--4-4-4--------------------------------------|

Static palms melt your vibe

G|---------------------------------------------|
D|---------6-6-66-44-6---777-77-77-77----------|
A|---------------------------------------------|
E|--4-4-4--------------------------------------|

Midnight whisperings.


[Chorus]

G|----------------------------------------------------------------------|
D|----------------777--7-779-999--------------------------9-------------|  x2
A|--444--44-4467------7-7-----------777-7-77--777-7--9-11---11-9-7------|
E|------4------------------------------7-7--7---------------------------|

Black magic of Mulholland Drive
Swimming pools under desert skies…


G|---------------------------------------------------------------------|
D|----------------777--7-779-999---------------------------------------|
A|--444--44-4467------7-7-----------777-7-77--777-7-777777777777-------|
E|------4------------------------------7-7--7--------------------------|


[Verse 2]

G|-------------------------------------------------------------|
D|-------------------------------------------------------------|
A|-------------------12-12-12-12-12-12-12-12-14-14-------------|
E|-9-9-9-99-99-11-12-------------------------------------------|

You’ve got two black eyes
from loving too hard…


G|---------------------------------------------------------------|
D|---------------------------------------------------------------|
A|--777-777-77---777-11-9-7-9-7-6--------------------------------|
E|-------------7-------------------------------------------------|

I wouldn’t try to change ya…


G|---------------------------------------------------------------|
D|---------------------------------------------------------------|
A|---------------------12-12-12-12-12-12-12-12-14-14-------------|
E|--9-9-9-99-99-11-12--------------------------------------------|

G|----------------------------------------------------------|
D|----------------------------------------------------------|
A|--777-777-77---777-11-9-11-9------------------------------|
E|-------------7--------------------------------------------|


[Pre-Chorus]

G|---------------------------------------------|
D|---------6-6-66-44-6---777-77-77-64----------|
A|---------------------------------------------|
E|--4-4-4--------------------------------------|

Static palms melt your vibe

G|---------------------------------------------|
D|---------6-6-66-44-6---777-77-77-77----------|
A|---------------------------------------------|
E|--4-4-4--------------------------------------|

Midnight whisperings.


[Chorus]

G|----------------------------------------------------------------------|
D|----------------777--7-779-999--------------------------9-------------|  x2
A|--444--44-4467------7-7-----------777-7-77--777-7--9-11---11-9-7------|
E|------4------------------------------7-7--7---------------------------|

Black magic of Mulholland Drive
Swimming pools under desert skies…


G|---------------------------------------------------------------------|
D|----------------777--7-779-999---------------------------------------|
A|--444--44-4467------7-7-----------777-7-77--777-7-777777777777-------|
E|------4------------------------------7-7--7--------------------------|


[Bridge]

G|---------------------------------------------------------|
D|-----------------------------12----12-14-----------------|    x3
A|--777777-7---77777--10-12-14----14-----------------------|
E|--------7-7----------------------------------------------|

LA Devotee
LA Devotee
LA Devotee

G|---------------------------------------------|
D|---------------------14-12-------------------|
A|--777777-7---77777---------14-12-10-12-10----|
E|--------7-7----------------------------------|

LA Devotee


[Pre-Chorus]
(key change)


G|----------------------------------------------------------10-----------|
D|--------------------888-888888-8-10-----------------10-12----12-10-----| x2
A|--55555555555-7-8------8-------------88888-8-888-12----------------12--|
E|------------------------------------------8-8--------------------------|

Black magic on Mulholland Drive
Swimming pools under desert skies
 
G|-----------------------------------------------------------|
D|--------------------888-888888-8-10------------------------|
A|--55555555555-7-8------8-------------88888-8-888-8/0-------|
E|------------------------------------------8-8--------------|

Drinking white wine…



************************************

| /  Slide up 

************************************ 
Suggest correction
Creating personal tab
Creating personal tab
You can edit any tab online and save it as your Personal.

You can edit, replace or remove any tab part or add personal notes – all changes will be seen only by you.

Personal tabs can be accessed anytime from any device, even offline.
Learn more »
comments
print report bad tab
1 comment total.
-2 reply
nolealrahaf 10 Jan 17, 2017 06:21 AM

so high? i saw other cover and its very different

guest
You may want to rate the tab now too:
select rating
Wanna post a correction for this tab? Suggest correction