Oops, an error
Loading. Please wait.

La Devotee tab

version 1
version 1

Whole song

Interactive

6,169 views 60 this week
1 commentread comment
1 2 3 4 5
x 7
add to favorites
×
Save as Personal and add changes to this tab that will be seen only by you. Learn more ›
×
You can save this tab as Personal to edit and correct it or add notes. All changes will be seen only by you. Learn more »
launch autoscroll
font size
0
reset
how to read this tab
guitar tuner
edit
Autoscroll
slow
fast
+/-
esc
set tempo
stop
Author
Tabbed by: jcameronp
Tuning: standard

-----

Verse 1

e|---------------------------------------------------------------------------|
B|---------------------------------------------------------------------------|
G|---------------------------------------------------------------------------|
D|---------------------------------------------------------------------------| 
A|-2/4-4-4-4-4-4-4/2---------------------------------------------------------|
E|-------------------5-5-5-5-5-5-5-5-0-0-0-0-0-0-0-0-0-0-0-0-0-0-0-0---------| x2

-----

Prechorus

e|---------------------------------------------------------------------------|
B|---------------------------------------------------------------------------|
G|---------------------------------------------------------------------------|
D|---------------------------------------------------------------------------|
A|---------------------------------------------------------------------------|
E|-4-4-4-4-4-4-4-4-4-4-4-4-4-4-4-4-5-5-5-5-5-5-5-5-5-5-5-5-5-5-5-5-----------| x2

-----

Chorus

e|---------------------------------------------------------------------------|
B|---------------------------------------------------------------------------|
G|-6-6~----------------------------------------------------------------------|
D|-6-6~----7~---2-7/2~-------------------------------------------------------|
A|-4-4~----7~---2-7/2~-------------------------------------------------------| 
E|---------5~---0-5/0~-------------------------------------------------------| x3

-----

Verse 2

e|---------------------------------------------------------------------------|
B|---------------------------------------------------------------------------|
G|---------------------------------------------------------------------------|
D|---------------------------------------------------------------------------| 
A|-2/4-4-4-4-4-4-4/2---------------------------------------------------------|
E|-------------------5-5-5-5-5-5-5-5-0-0-0-0-0-0-0-0-0-0-0-0-0-0-0-0---------| x2

-----

Prechorus

e|---------------------------------------------------------------------------|
B|---------------------------------------------------------------------------|
G|---------------------------------------------------------------------------|
D|---------------------------------------------------------------------------|
A|---------------------------------------------------------------------------|
E|-4-4-4-4-4-4-4-4-4-4-4-4-4-4-4-4-5-5-5-5-5-5-5-5-5-5-5-5-5-5-5-5-----------| x2

-----

Chorus

e|---------------------------------------------------------------------------|
B|---------------------------------------------------------------------------|
G|-6-6~----------------------------------------------------------------------|
D|-6-6~----7~---2-7/2~-------------------------------------------------------|
A|-4-4~----7~---2-7/2~-------------------------------------------------------| 
E|---------5~---0-5/0~-------------------------------------------------------| x3

-----

Bridge

e|---------------------------------------------------------------------------|
B|---------------------------------------------------------------------------|
G|---------------------------------------------------------------------------|
D|---------------------------------------------------------------------------|
A|-2-2-2-2-2-----------------------------------------------------------------|
E|-0-0-0-0-0-----------------------------------------------------------------| x4
   . . . . .

or

e|---------------------------------------------------------------------------|
B|---------------------------------------------------------------------------|
G|---------------------------------------------------------------------------|
D|---------------------------------------------------------------------------|
A|---------------------------------------------------------------------------|
E|-0~-------------------------------0~---------------------------------------| x4

-----

Final Chorus (play muted strings only once during the first time through)

e|---------------------------------------------------------------------------|
B|---------------------------------------------------------------------------|
G|-x-x-7~--3~----------------------------------------------------------------|
D|-x-x-7~--3~--3~--7/3~------------------------------------------------------|
A|-x-x-5~--1~--3~--7/3~------------------------------------------------------| 
E|-------------1~--5/1~------------------------------------------------------| x3


            
            
Suggest correction
Creating personal tab
Creating personal tab
You can edit any tab online and save it as your Personal.

You can edit, replace or remove any tab part or add personal notes – all changes will be seen only by you.

Personal tabs can be accessed anytime from any device, even offline.
Learn more »
comments
print report bad tab
1 comment total.
0 reply
caldog02 34 Jan 31, 2017 03:53 PM

You could change the final chorus so it looks like this.

7
5
5
6
8
8
Then go into the last part.

That's just how I play it.

guest
You may want to rate the tab now too:
select rating
Wanna post a correction for this tab? Suggest correction