Oops, an error
Loading. Please wait.

London Beckoned Songs About Money Written By Machines Bass Tab

version 1
version 1

Whole song

Interactive

5,417 views 3 this week
no commentswrite comment
1 2 3 4 5
excellent!
x 4
add to favorites
launch autoscroll
font size
0
reset
guitar tuner
Autoscroll
slow
fast
+/-
esc
set tempo
stop
Help us to improve Ultimate-Guitar.com Take our survey!
×
Author
Tabbed by: Valerie L
e-mail: iloled@yahoo.com

>> = keep playing the note 

if you're having trouble on the rhythm, I suggest following what the drummer is doing.

Tuning: Drop D

Right in the beginning
G|---------|   
D|---------|   
A|---------|   
D|--3333---|

"Stop stalling.."
G|---------------------------------------------------------------|   
D|---------------------------------------------------------------|   
A|-00-00-00-00----------------00-00-00-00------------0~-0000000--|   
D|-------------00-00-00-00-33--------------00>>--2~--------------|

Pre-Chorus (0:28)
G|-------------------------------------|
D|-------------------------------------|
A|--------------0~---------------------|
D|-33-33-2-2-2~-----33-333333333333----|

Chorus:
G|-------------------------------------------------------------------|
D|-------------------------------------------------------------------|
A|-00-0-00-0-00-0-00-0-33-3-33-3-33-3-33-3---------------------------|
D|-----------------------------------------33-3-33-3-33-3-33-3-33333-| x2

"I'm burning and I'm black in my lungs..."
G|---------------------------------------------|
D|---------------------------------------------|
A|-0~-0----------------00-00-00-00-------------|
D|------00-00-00-00-33-------------00>>--2~----|

"Just for the record the weather today..."
G|---------------------------------------|--------------|
D|---------------------------------------|--------33>>--|
A|-0-----3---3---3-----0-----3----3------|--------------|
D|----5----3---5---3h5----5----3----5~---|--33>>--------|

Back to Chorus x2

then at (2:33) play 
"I'm burning and I'm black in my lungs..."
G|---------------------------------------------|
D|---------------------------------------------|
A|-0~-0----------------00-00-00-00-------------|
D|------00-00-00-00-33-------------00>>--2~----|

"Just for the record the weather today..."
G|-2-2-22---------------|
D|--------5-5-44-444-3--|
A|----------------------|
D|----------------------| x2

Chorus x2
end last part with 0~
Suggest correction
comments
print report bad tab
guest
You may want to rate the tab now too:
select rating
Wanna post a correction for this tab? Suggest correction