Oops, an error
Loading. Please wait.

Lying Is The Most Fun A Girl Can Have Without Taking Her Clothes Off Bass Tab

version 2
version 2

Whole song

Interactive

13,905 views 36 this week
3 commentsread comments
1 2 3 4 5
excellent!
x 10
add to favorites
launch autoscroll
font size
0
reset
guitar tuner
Autoscroll
slow
fast
+/-
esc
set tempo
stop
Help us to improve Ultimate-Guitar.com Take our survey!
×
Author
MusicMan24 3,308
-------------------------------------------------------------------------------
  Lying Is The Most Fun A Girl Can Have Without Taking Her Clothes Off - Panic! At The Disco
-------------------------------------------------------------------------------

Tabbed By : MusicMan24
e-mail: a7t1r1@hotmail.com

All the other tabs for this song are in standard, which is wrong,
This song is in Drop D.


Tuning: Drop D  (DADG)


Verse 1 x4

G|------------------------------|
D|---------11-------------------|
A|3--3-33----11-------------3-5-| 
D|-------------6-6-66-6--3-5----|


Pre-Chorus 1 x1

G|--------------------------|
D|--------------------------|
A|--------------------------|
D|6~-------3333333333333333-|


Chorus x2

G|-------------------------------------|    
D|------3h5-------3p5------------------|         
A|333333----111111---------------------| x2 
D|-------------------6-66-666-6-66-666-|  


Post-Chorus x1

G|-------------------------------------|
D|-------------------------------------|
A|6~-----33333333-22222222-------------|
D|------------------------666666666666-|


Verse 2 x2

G|-----------------------------------|
D|-------------11--------------------|
A|33-133-133-1---11------------------|
D|------------------66-366-366-6-366-|


Pre-Chorus 2 x1

G|-----------|
D|-----------|
A|-----------|
D|33333333-3-|

Chorus x2


Bridge X1

G|-----------------------------------------------------------|
D|-----------------------------------------------------------|
A|3--33-33-22-22-22---------------------------------------3~-|
D|------------------6-66-6-6-66-66-66-66--3333333333333333---|

Verse 2 x2
Pre-Chorus 2 x1
Chorus x2


Outro

G|------------------------------------------------------------------------|
D|------------------------------------------------------------------------|
A|3-33-333-2-22-222-----------------3-33-333-2-22-222---------------------|
D|-----------------6-66-666-6-66-666-----------------6-66-666-6-66-666-6~-|

PEACE


| /  slide up
| \  slide down
| h  hammer-on
| p  pull-off
| ~  vibrato
| +  harmonic
| x  Mute note
===============================================================================
Suggest correction new What's this?
You can suggest a correction to this tab. Community and Mods will review your correction and vote to approve or reject it.
comments
print report bad tab
3 comments total.
+2 reply
Agatha2405 59 wrote on February 6 2014, 11:08 am

It make no difference if you put it in drop d since you are not planning 0 or 1. You just made it pointlessly harder to play. Otherwise the tab's perfect.

-2 reply
MusicMan24 3,308 wrote on February 10 2014, 01:46 pm

You must not be very good at bass if you think this is hard to play

-1 reply
MusicMan24 3,308 wrote on February 10 2014, 01:46 pm

Plus they play in drop D, so why wouldn't I tab it in that tuning

guest
You may want to rate the tab now too:
select rating
Please do not post tabs as comments. Select "correction" instead!