Oops, an error
Loading. Please wait.

Lying Is The Most Fun A Girl Can Have Without Taking Off Her Clothes Bass Tab

version 1
version 1

Whole song

Interactive

6,301 views 18 this week
no commentswrite comment
1 2 3 4 5
accurate
x 5
add to favorites
launch autoscroll
font size
0
reset
guitar tuner
Tab Pro tools
  • play this tab
  • loop segment
  • change instrument
  • show fretboard
  • metronome
Autoscroll
slow
fast
+/-
esc
set tempo
stop
Contributor

updated as of Nov 30th, 2008

-------------------------------------------------------------------------------
			     Lying is the most fun.. - Panic At The Disco
-------------------------------------------------------------------------------

Tabbed By : Valerie Louie
e-mail: iloled@yahoo.com
Tuning: Standard

Verse "is it still me?"
G|--------------------------------|
D|--------11----------------------|    
A|-3-3-33----11--------------1-3--|    
E|--------------4-4-44-4-1-3------| x4 

pre-c "you know it will always just be me..."
G|-----------------------------|
D|-----------------------------|
A|-----------------------------|
E|-4~----111111111111111-------|

chorus "so testosterone boys & harlequin girls.."
G|---------------------------------------|          |------|
D|-------3h5--------5p3------------------|          |------|
A|-333333----111111----------------------|          |------|
E|----------------------4444444444444444-| x2       |-4~---|

pre-verse "so I guess we're back to us."
G|-----------------------------------|
D|-----------------------------------|
A|-33333333-22222222-----------------|
E|-------------------44444444444-44--|

verse "now i do recall.."
G|--------------------------------------------|
D|----------------11--------------------------|
A|-33-1-33-1-33-1----11-----------------------|
E|------------------------44-1-44-1-44-4-1-44-|

pre-chorus
G|------------|
D|------------|
A|------------|
E|-111111111--|

chorus "so testosterone boys & harlequin girls.."
G|---------------------------------------|          
D|-------3h5--------5p3------------------|          
A|-333333----111111----------------------|          
E|----------------------4444444444444444-| x2       

bridge"dance to this beat.."
G|--------------------------------------|
D|-------------------6-66-6-6-66-66-66--|
A|-3-33-33-22-22-22---------------------|
E|--------------------------------------|x2

G|--------------------------|
D|--------------------------|
A|---------------------3~---|
E|-111111111111111111-------|


verse "i've got more wit.."
G|--------------------------------------------|
D|----------------11--------------------------|
A|-33-1-33-1-33-1----11-----------------------|
E|------------------------44-1-44-1-44-4-1-44-| x2

pre-chorus x1
chorus x2

breakdown
G|-------------------------------------|
D|-------------------------------------|
A|-33333333-22222222-------------------|
E|-------------------4444444444444444--|

G|-----------------------------------------|
D|-----------------------------------------|
A|-33333333-22222222-----------------------|
E|-------------------444444444444444444-4~-|



comments
print report bad tab
I want to post or [tab]
guest
You may want to rate the tab now too:
select rating
Please do not post tabs as comments. Select "correction" instead!