Oops, an error
Loading. Please wait.

Mad As Rabbits Bass Tab

version 1
version 1

Whole song

Interactive

1,872 views 12 this week
2 commentsread comments
1 2 3 4 5
not so good
x 4
add to favorites
launch autoscroll
font size
0
reset
guitar tuner
Tab Pro tools
  • play this tab
  • loop segment
  • change instrument
  • show fretboard
  • metronome
Autoscroll
slow
fast
+/-
esc
set tempo
stop
Contributor
Difficulty
intermediate
(Intro)

G|--------------------------| [x2]
D|--------------------------|
A|------5555-3333------3333-|
E|-3333-----------5555------|

Verso * ( And now... até ... enough trash )

G|--------------------------| [x2]
D|--------------------------|
A|------5555-3333------3333-|
E|-3333-----------5555------|

Pré Chorus ( Ahh )

G|--------------------------|
D|--------------------------|
A|----------3-3-------------|
E|--5-5-5-------------------|

Chorus ( He took the days..)

G|--------------------------| [x2]
D|--------------------------|
A|---55--33-----------------|
E|-----------3333-----------|


( who could.... até ...could have more )

G|--------------------------|
D|--------------------------|
A|-----------333333---------|
E|---5555-------------------|

Pós Refrão e Verso 2 ( His arms... até ... when he tried)

G|--------------------------| [x6]
D|--------------------------|
A|------5555-3333------3333-|
E|-3333-----------5555------|

( to save ... até o primeiro bussiness )

G|--------------------------|
D|--------------------------|
A|---3----------------------|
E|-----3---5555-------------|

( até o segundo bussiness)

G|--------------------------|
D|--------------------------|
A|---3----------------------|
E|-----3---55555555---------|


Chorus ( He took the days..)

G|--------------------------| [x2]
D|--------------------------|
A|---55--33-----------------|
E|-----------3333-----------|

( who could.... até ...could have more )

G|--------------------------|
D|--------------------------|
A|-----------333333---------|
E|---5555-------------------|

Verso 3** ( And now... )

G|--------------------------| [x2]
D|--------------------------|
A|------5555-3333------3333-|
E|-3333-----------5555------|

Bridge ( We must.. )

G|--------------------------|  [x2]
D|--------------------------|
A|-----3--------------------|
E|-5-0----333333------------|

(Terceiro we must...)

G|--------------------------|
D|--------------------------|
A|-----3----333-------------|
E|-5-0----5-----555555------|


Chorus ( He took the days..)

G|--------------------------| [x2]
D|--------------------------|
A|---55--33-----------------|
E|-----------3333-----------|


( who could.... até ...could have more )

G|--------------------------|
D|--------------------------|
A|-----------333333---------|
E|---5555-------------------|

Bridge ( We must.. )

G|--------------------------|  [x2]
D|--------------------------|
A|-----3--------------------|
E|-5-0----333333------------|

(Terceiro we must...)

G|--------------------------|
D|--------------------------|
A|-----3----333-------------|
E|-5-0----5-----555555------|

Final

E|--5-----5-----------------
comments
print report bad tab
2 comments total.
0 reply
BulletFrost wrote on August 9 2010, 02:05 am

Wow! This couldn't possibly BE anymore wrong than it is now.
Dr. Cox: "WRONG WRONG WRONG WRONG WRONG.... WRONG WRONG WRONG WRONGGGGG

YOU'RE WRONG
YOU'RE WRONGGGGG
YOU'RE WRONGG"

0 reply
RoseLeeHavok wrote on June 8 2012, 07:36 pm

I wish that this was more detailed with like the lyrics and stuff

I want to post or [tab]
guest
You may want to rate the tab now too:
select rating
Please do not post tabs as comments. Select "correction" instead!