Oops, an error
Loading. Please wait.

Memories Bass Tab

version 1
version 1

Whole song

Interactive

3,074 views 3 this week
no commentswrite comment
1 2 3 4 5
excellent!
x 3
add to favorites
launch autoscroll
font size
0
reset
guitar tuner
Autoscroll
slow
fast
+/-
esc
set tempo
stop
Help us to improve Ultimate-Guitar.com Take our survey!
×
Author
MusicMan24 3,308
-------------------------------------------------------------------------------
			     Memories - Panic! at the Disco
-------------------------------------------------------------------------------

Tabbed By : MusicMan24
e-mail: a7t1r1@hotmail.com



Tuning: Standard


Intro x1

G|------------------------------------------|
D|------------------------------------------|
A|--------------------------------------2~--|
E|0~--------4~--------0~--------4~----------|


Verse x1 (2nd time only; 1st time it's only the 2 guitars)

G|------------------------------------------------------------------|
D|------------------------------------------------------------------|
A|------------------------------------------------------------------|
E|0-000-000-000-000-000-000-000-00-4-444-444-444-444-444-444-444-44-|

G|---------------------------------|
D|---------------------------------|
A|----------------4-444-444-444-44-|
E|5-555-555-555-55-----------------|

G|---------------------------------|
D|---------------------------------|
A|2-222-222-222-222-222-222-222-22-|
E|---------------------------------|


Chorus x2

G|---------------------------------|
D|---------------------------------|
A|44444444--------2222222222222222-|
E|--------55555555-----------------|

G|------------------------------------------|
D|------------------------------------------|
A|44444444--------22222222/1414141414141414-|
E|--------55555555--------------------------|


Verse x1 (2nd time only again)


Chorus x1

G|---------------------------------|
D|---------------------------------|
A|44444444--------2222222222222222-|
E|--------55555555-----------------|

G|------------------------------------------|
D|------------------------------------------|
A|44444444--------22222222/1414141414141414-|
E|--------55555555--------------------------|

G|-------|
D|-------|
A|-------|
E|0-0-0~-|


Guitar solo x2

G|---------------------------------|
D|---------------------------------|
A|44444444--------2222222222222222-|
E|--------55555555-----------------|


PAUSE


Verse x1

G|------------------------------------------------------------------|
D|------------------------------------------------------------------|
A|------------------------------------------------------------------|
E|0-000-000-000-000-000-000-000-00-4-444-444-444-444-444-444-444-44-|

G|-----------------|
D|-----------------|
A|4-444-444-444-44-|
E|-----------------|

Chorus x2

G|---------------------------------|
D|---------------------------------|
A|44444444--------2222222222222222-|
E|--------55555555-----------------|

G|------------------------------------------|
D|------------------------------------------|
A|44444444--------22222222/1414141414141414-|
E|--------55555555--------------------------|

G|-------------|
D|-------------|
A|-------------|
E|0-0-0~--/12~-|


END

PEACE OUT


| /  slide up
| \  slide down
| h  hammer-on
| p  pull-off
| ~  vibrato
| +  harmonic
| x  Mute note
===============================================================================
Suggest correction new What's this?
You can suggest a correction to this tab. Community and Mods will review your correction and vote to approve or reject it.
comments
We did not receive enough feedback on this tab! Please rate:
print report bad tab
1 2 3 4 5
guest
You may want to rate the tab now too:
select rating
Please do not post tabs as comments. Select "correction" instead!