Oops, an error
Loading. Please wait.

Miss Jackson bass

version 1
version 1

Whole song

Interactive

13,433 views 39 this week
no commentswrite comment
1 2 3 4 5
x 4
add to favorites
×
Save as Personal and add changes to this tab that will be seen only by you. Learn more ›
×
You can save this tab as Personal to edit and correct it or add notes. All changes will be seen only by you. Learn more »
launch autoscroll
font size
0
reset
guitar tuner
edit
Autoscroll
slow
fast
+/-
esc
set tempo
stop
Author
Difficulty
Unregistered
-------------------------------------------------------------------------------
                             Miss Jackson - Panic! At THe Disco
-------------------------------------------------------------------------------

[Intro]
G|------------------|
D|------------------|
A|---5-5-5-5-5-/----|
E|------------------| X4

      SLIDE UP TO 1ST FRET

[Verse]
G|-------------------------------------------------------|
D|---------7--------5-5-3------------7-------5-5-3-------|
A|----5-5----5------------5-5----5-5---5-----------5-5---|
E|-------------------------------------------------------|

G|--------------------------------------------|
D|--------------------------------------------|
A|--5-5-5-5--3-3-3-3---5-5-5-5---3-3-3-3------|
E|--------------------------------------------|x3
             OPTINAL OR PLAY FIRST PART 4X
                
  [PRE CHORUS:]
G|-----------------------------------------------|
D|-----------------------------------------------|
A|--5-5-5-5--8-8-8-8--10-10-10-10--12-12-12-12---|
E|-----------------------------------------------|x2

G|-------------------|
D|-------------------|
A|--5---8---10--12---|
E|-------------------| X2

[Chorus]
G|-------------------------------|
D|-------------------------------|
A|--5-5---5-5---5-5---8-10-8-----|
E|-------------------------------| X2

  THE THIRD TIME PLAY
G|---------------------------------------|
D|---------------------------------------|
A|--5-5---5-5---5-5---8--10--8--/--12----|
E|---------------------------------------|

G|-----------------------------------------------|
D|-----------------------------------------------|
A|--5-5-5-5--8-8-8-8--10-10-10-10--12-12-12-12---|
E|-----------------------------------------------|x2

[Verse]
G|-------------------------------------------------------|
D|---------7--------5-5-3------------7-------5-5-3-------|
A|----5-5----5------------5-5----5-5---5-----------5-5---|
E|-------------------------------------------------------|X2

G|-----------------------------------------------|
D|-----------------------------------------------|
A|--5-5-5-5--8-8-8-8--10-10-10-10--12-12-12-12---|
E|-----------------------------------------------|x2

G|-------------------|
D|-------------------|
A|--5---8---10--12---|
E|-------------------| X2

[Chorus]
G|-------------------------------|
D|-------------------------------|
A|--5-5---5-5---5-5---8-10-8-----|
E|-------------------------------| X2

  THE THIRD TIME PLAY
G|---------------------------------------|
D|---------------------------------------|
A|--5-5---5-5---5-5---8--10--8--/--12----|
E|---------------------------------------|

G|-----------------------------------------------|
D|-----------------------------------------------|
A|--5-5-5-5--8-8-8-8--10-10-10-10--12-12-12-12---|
E|-----------------------------------------------|x2


        ---------------rest-------------

[Chorus]
G|-------------------------------|
D|--------------------7--5--7----|
A|--5-5---5-5---5-5--------------|
E|-------------------------------| X2

  THE THIRD TIME PLAY
G|---------------------------------------|
D|--------------------7--5--7---7--5--7--|
A|--5-5---5-5---5-5----------------------|
E|---------------------------------------|

G|-----------------------------------------------|
D|-----------------------------------------------|
A|--5-5-5-5--8-8-8-8--10-10-10-10--12-12-12-12---|
E|-----------------------------------------------|x2



************************************

| /  Slide up

************************************

            
            
Suggest correction
Creating personal tab
Creating personal tab
You can edit any tab online and save it as your Personal.

You can edit, replace or remove any tab part or add personal notes – all changes will be seen only by you.

Personal tabs can be accessed anytime from any device, even offline.
Learn more »
comments
print report bad tab
guest
Wanna post a correction for this tab? Suggest correction