Oops, an error
Loading. Please wait.

My Bloody Valentine tab

106 views 3 this week
no commentswrite comment
1 2 3 4 5
2 more votes to show rating
add to favorites
×
Save as Personal and add changes to this tab that will be seen only by you. Learn more ›
×
You can save this tab as Personal to edit and correct it or add notes. All changes will be seen only by you. Learn more »
launch autoscroll
font size
0
reset
how to read this tab
guitar tuner
edit
Autoscroll
slow
fast
+/-
esc
set tempo
stop
this is a guitar tab version that i worked out for 'my bloody valentine' from the periscope recording.
LINK: https://youtu.be/dJ972Jpb_LQ

it is difficult to hear some of the notes in the chorus so ive written two versions (one with a straight beat 
and one with a more dotted rhythm). ive also written two versions of each tab, one using one string (with a
lot of movement), and one using multiple strings.

ive also written a chord version, which includes this tab, the lyrics and the chords all together, which can 
be found at this link:
(will insert link if and when it gets approved)

and also just the chords:
(will insert link if and when it gets approved)

i hope you enjoy! :)

[Verse]

e|---------------------------|
B|---------------------------|
G|---------------------------|
D|---------------------------|
A|---------------------------|
E|-7-7-10-10-3---0-0-2-2-5---| x4

             -OR-

e|---------------------------|
B|---------------------------|
G|---------------------------|
D|-----0-0-------------------|
A|-2-2-------------------0---|
E|---------3-3---0-0-2-2-----| x4


[Pre-chorus]

e|-------------------------------|
B|-------------------------------|
G|-------------------------------|
D|-------------------------------|
A|-------------------------------|
E|-7-----9--10---2---3---0---5---| x1

             -OR-

e|------------------------------|
B|------------------------------|
G|------------------------------|
D|----------0-------------------|
A|-2-----4------------------0---|
E|--------------2---3---0-------|  x1


version which follows the drum beat a bit closer (doesn't speed up):

e|----------------------------------------------------------------|
B|----------------------------------------------------------------|
G|----------------------------------------------------------------|
D|----------------------------------------------------------------|
A|----------------------------------------------------------------|
E|-7-7-7-7-7-7-9-9-10-10-10-10-2-2-2-2-3-3-3-3-0-0-0-0-5-5-5-5----| x1

                            -OR-

e|------------------------------------------------------------|
B|------------------------------------------------------------|
G|------------------------------------------------------------|
D|-----------------0-0-0-0------------------------------------|
A|-2-2-2-2-2-2-4-4---------------------------------0-0-0-0----|
E|-------------------------2-2-2-2-3-3-3-3-0-0-0-0------------| x1


[Chorus]

e|---------|
B|---------|        
G|---------|
D|---------|
A|---------|
E|-5-7-5-2-| x16

    -OR-

e|---------|
B|---0-----|
G|-2---2---|
D|-------4-|
A|---------|
E|---------| x16

possibly melody that i could almost hear 

e|--------------|
B|--------------|
G|--------------|
D|--------------|
A|--------------|
E|-5-7-2--2-5-2-| x16

       -OR-

e|--------------|
B|---0----------|
G|-2--------2---|
D|-----4--4---4-|
A|--------------|
E|--------------| x16


extra bits:

in a periscope video where brendon talks about my bloody valentine, he plays the instrumental on its own which
goes like this:

(link:  https://youtu.be/U_iOelrru40?t=1m10s  )

e|-----------------|
B|-----------------|
G|-----------------|
D|-----------------|
A|-----------------|
E|-7-2-3---2-5-0---|

        -OR-

e|-----------------|
B|-----------------|
G|-4---------------|
D|---4-5---4-7-----|
A|-------------7---|
E|-----------------|


near the end of the song, before the pre-chorus repeats and without vocals, there is a slightly different tune
that goes like this:
LINK: https://youtu.be/dJ972Jpb_LQ?t=2m50s


e|---------------------------|
B|---------------------------|
G|---------------------------|
D|---------------------------|
A|---------------------------|
E|-7-7-10-10-3---2-2-5-5-0---|

             -OR-

e|---------------------------|
B|---------------------------|
G|---------------------------|
D|-----0-0-------------------|
A|-2-2---------------0-0-----|
E|---------3-3---2-2-----0---|

            
            
Suggest correction
Creating personal tab
Creating personal tab
You can edit any tab online and save it as your Personal.

You can edit, replace or remove any tab part or add personal notes – all changes will be seen only by you.

Personal tabs can be accessed anytime from any device, even offline.
Learn more »
Give kudos to tab author, rate the tab!
1 2 3 4 5
comments
print report bad tab
guest
You may want to rate the tab now too:
select rating
Wanna post a correction for this tab? Suggest correction