Oops, an error
Loading. Please wait.

Nails For Breakfast Tacks For Snacks Bass

version 1
version 1

Whole song

Interactive

3,318 views 1 this week
1 commentread comment
1 2 3 4 5
x 4
add to favorites
launch autoscroll
font size
0
reset
guitar tuner
Autoscroll
slow
fast
+/-
esc
set tempo
stop
Author
tabbed by: Valerie L.
e-mail: iloled@yahoo.com

There are two ways to play this song because you can also play it in standard tuning.

You can play this for the techno part which starts at 

Verse (0:13)
G|---------2-2-2-2-----------------|    |------|
D|-0-0-0-0---------2-2-2-2-3-3-3-3-|    |--5~--|
A|---------------------------------|    |------|
D|---------------------------------| x4 |------|

You can also play:
G|---------------------------------|   
D|---------------------------------|   
A|---------0-0-0-0-----------------|    
D|-0-0-0-0---------2-2-2-2-3-3-3-3-|

Break
G|------|
D|------|
A|--6~--|
D|------|

Chorus:
G|--------------------3-------------|
D|---------3-3--3--------------5----|
A|-5-5--5---------1-1---11----------|
D|-------------------------5-5---55-| x2

Verse x4

Chorus:
G|--------------------3-------------|
D|---------3-3--3--------------5----|
A|-5-5--5---------1-1---11----------|
D|-------------------------5-5---55-| x2

third time:
G|-------------------3-------------|
D|--------3-3--3--------------1----|
A|-5-5--5--------1-1---11----------|
D|------------------------1-1---11-| 

repeat chorus once

Bridge:
"I am alone..."
G|-------------------------------------------------------------------------------------|    
D|-------------------------------------------------------------------------------------|    
A|-------------------------------------------------------------------------------------|    
D|-0-0000000-33333333-00000000-33333333-55555555-00000000-33333333-55555555-00000000-3~|

Chorus 
G|--------------------3-------------|
D|---------3-3--3--------------5----|
A|-5-5--5---------1-1---11----------|
D|-------------------------5-5---55-| x2

third time:
G|-------------------3-------------|
D|--------3-3--3--------------1----|
A|-5-5--5--------1-1---11----------|
D|------------------------1-1---11-| 

repeat chorus once 

Suggest correction
comments
print report bad tab
1 comment total.
0 reply
ASAPROACH 166 Mar 03, 2015 03:23 PM

On the chorus instead of this:
G|--------------------3-------------|
D|---------3-3--3--------------5----|
A|-5-5--5---------1-1---11----------|
D|-------------------------5-5---55-|

I play

G|----------------------------------|
D|---------------------8-------5----|
A|-3/5-5--5/8-8--8------------------|
D|-----------------8-8--88--5-5---55|

it sounds a lot deeper, and it's easier

great tab though, another person who appreciates panic! at the disco's basslines

guest
You may want to rate the tab now too:
select rating
Wanna post a correction for this tab? Suggest correction