Oops, an error
Loading. Please wait.
We have Chord Pro version of New Perspective.
It's the closest thing you can get to the original song and it has interactive parts. Check out the tab »
×
17,922 views 15 this week
no commentswrite comment
1 2 3 4 5
x 6
add to favorites
launch autoscroll
font size
0
reset
guitar tuner
Autoscroll
slow
fast
+/-
esc
set tempo
stop
Difficulty
novice
Intro- begin at (:07)
G|----|-------------------------------------------------------|
D|----|-------------------------------------------------------|
A|-22-|-233233-55525--233233-55575--233233-55525-233233-55555-|
E|----|-------------------------------------------------------|

Verse- (I feel the salty waves come in...)
G|-----------------------------------------|
D|-----------------------------------------|
A|-----------77----77--3-333333--3-333320--|
E|-3-333333--------------------------------|
(And I smile as I respire...)
G|-----------------------------------------|
D|-----------------------------------------|
A|-----------77--012---3-333333--3-333320--|
E|-3-333333--------------------------------|
(There's a haze above my T.V.)
G|-----------------------------------------|
D|-----------------------------------------|
A|-----------77----77--3-333333--3-333-5---|
E|-3-333333---------------------------3-5--|
(And maybe if I continue watching...)
G|-----------------------------------------|
D|-----------------------------------------|
A|-----------77----77--3-333333--3-333320--|
E|-3-333333--------------------------------|

Pre Chorus- (Can we fast forward...)
G|-------|
D|-------|
A|-------|
E|-8s--3-|

Chorus- (Stop there and let me correct it...)
G|---------------------------------|
D|---------------------------------|
A|---------7-7-7-7-3-3-3-3-3-3-3-3-|
E|-3-3-3-3-------------------------|

G|-----------------------------------------------------------------|
D|-----------------------------------------------------------------|
A|---------7-7-7-7-3-3-3-3-356-3--3---------7-7-7-7-3-3-3-3-3-3-3-3|
E|-3-3-3-3--------------------3-13--3-3-3-3------------------------|

G|---------------------------------|
D|---------------------------------|
A|---------7-7-7-7-3-3-3-3-3-3-3-3-|
E|-3-3-3-3-------------------------|

Intro-x1
Verse-x1
pre chorus-x1
Chorus-x1
Bridge- (More to the point...)
G|-------------------------------------------------------------|
D|-------------------------------------------------------------|(x2)
A|-------------777-77-7777-222-22-2222-555-55-5555-------------|
E|-333-33-3333-------------------------------------------------|

G|-------------------------------------------|
D|-------------------------------------------|
A|------------------------22222222s6s9s14s18-|
E|-33333333-7777-55555555--------------------|

Breakdown- Nothing
Chorus-x1
Intro-x1




Suggest correction
comments
print report bad tab
guest
You may want to rate the tab now too:
select rating
Wanna post a correction for this tab? Suggest correction