Oops, an error
Loading. Please wait.

New Perspective Bass Tab

version 2
version 2

Whole song

Interactive

2,479 views 1 this week
1 commentread comment
1 2 3 4 5
please rate
add to favorites
launch autoscroll
font size
0
reset
guitar tuner
Tab Pro tools
  • play this tab
  • loop segment
  • change instrument
  • show fretboard
  • metronome
×
Best way to learn
"New Perspective"
Autoscroll
slow
fast
+/-
esc
set tempo
stop
Contributor
#----------------------------------PLEASE NOTE---------------------------------#
#This file is the author's own work and represents their interpretation of the #
#song. You may only use this file for private study, scholarship, or research. #
#------------------------------------------------------------------------------#

NEW PERSPECTIVE (Bassline)
As recorded by Panic! at the Disco
(From the 2009 Album JENNIFER'S BODY: ORIGINAL MOTION PICTURE SOUNDTRACK)

Transcribed by Pablo Gómez
	

Words and Music by Brendon Urie

Gtr I (E A D G) - 'Picked Bass'
Gtr II (E A D G B E) - 'Tango Accordion'
Gtr III (E A D G B E) - 'Pizzicato Strings'

 Intro
  Q=170
 4/4
  Gtr I
  Wx3          H    E E E E   E E E E E E Q
|------------|--------------|----------------|
|------------|--------------|----------------|
|------------|--------------|----------------|
|------------|--------7-7---|-7---8-8-7-8-8--|


   E  E  Q  Q   Q    E E E E E E Q
|------------------|------------------|
|------------------|------------------|
|------------------|------------------|
|-10-10-10--7--10--|-7---8-8-7-8-8----|


   E  Q  E  Q.      E          E  E E E E E Q
|--------------------------|-------------------|
|--------------------------|-------------------|
|--------------------------|-------------------|
|-10-10--5s17s======5------|---7----8-8-7-8-8--|
|
| Gtr II
|                       ~~~~~~~~~~
|  H        Q   E  +T   S.    +W
|--------------------------|-------------------|
|----------12--13-(13)-12--|-(12)--------------|
|--------------------------|-------------------|
|-----------9--10-(10)--9--|--(9)--------------|
|--------------------------|-------------------|
|--------------------------|-------------------|


   E  E  Q  Q   Q    E E E E E E Q     E  E  Q   Q   Q
|------------------|----------------|---------------------||
|------------------|----------------|---------------------||
|------------------|----------------|---------------------||
|-10-10-10--7--10--|-7---8-8-7-8-8--|-10-10-10--10--10----||
|
|  W                 W                 W
|------------------|----------------|---------------------||
|------------------|----------------|---------------------||
|------------------|----------------|---------------------||
|------------------|----------------|---------------------||
|------------------|----------------|---------------------||
|------------------|----------------|---------------------||


 Verse
  E E E E E E E E   E E H    E E   E E E E E E Q    E E E E E E E E
|-----------------|--------------|----------------|-----------------|
|-----------------|-2---2----2-2-|----------------|-----------------|
|-----------------|--------------|-3---3-3-3-3-3--|-3---3-3-3-3-2-0-|
|-3---3-3-3-3-3-3-|--------------|----------------|-----------------|


  E E E E E E E E   E E Q.   E E E   E E E E E E Q    E E E E E E E E
|-----------------|----------------|----------------|-----------------|
|-----------------|-2---2----------|----------------|-----------------|
|-----------------|----------0-1-2-|-3---3-3-3-3-3--|-3---3-3-3-3-2-0-|
|-3---3-3-3-3-3-3-|----------------|----------------|-----------------|


  E  E  E  E E  E  E  E   E E Q.   E E E   E E E E E E Q    E E E E E E E E
|-----------------------|----------------|----------------|-----------0-----|
|-----------------------|-2---2----------|----------------|-------------0---|
|-----------------------|----------0-1-2-|-3---3-3-3-3-3--|-3---3-3-3-----0-|
|-3-----3--3-3--3--3--3-|----------------|----------------|-----------------|
|
| Gtr III
| E  E  E  E E  E  E  E   W                W                W
|-----------------------|----------------|----------------|-----------------|
|-----------------------|----------------|----------------|-----------------|
|---10-12-10---10-12-10-|----------------|----------------|-----------------|
|-----------------------|----------------|----------------|-----------------|
|-----------------------|----------------|----------------|-----------------|
|-----------------------|----------------|----------------|-----------------|


  E  E  E  E E  E  E  E   E E Q.   E E E   E E E E E E Q    E E E E E E E E
|-----------------------|----------------|----------------|-----------------||
|-----------------------|-2---2----------|----------------|-----------------||
|-----------------------|----------0-1-2-|-3---3-3-3-3-3--|-3---3-3-3-3-2-0-||
|-3-----3--3-3--3--3--3-|----------------|----------------|-----------------||
|
| E  E  E  E E  E  E  E   W                W                W
|-----------------------|----------------|----------------|-----------------||
|-----------------------|----------------|----------------|-----------------||
|---10-12-10---10-12-10-|----------------|----------------|-----------------||
|-----------------------|----------------|----------------|-----------------||
|-----------------------|----------------|----------------|-----------------||
|-----------------------|----------------|----------------|-----------------||


 Chorus
  W          W          W          H    E E E E
|----------|----------|----------|--------------|
|----------|----------|----------|--------------|
|----------|----------|----------|--------------|
|-8s=======|=3--------|----------|------3-3---3-|


  +E  E Q  Q  E E   Q  Q  E E E E   +E  E Q  E E Q    Q  E Q  E E E
|-----------------|---------------|-----------------|---------------|
|-----------------|---------------|-----------------|---------------|
|-----------------|-7--7--7-7-7-3-|-(3)-3-3--3-3-3--|-3--3-3--3-3---|
|-(3)-3-3--3--3-3-|---------------|-----------------|-------------3-|


  +E  E Q  Q  E E   Q  Q  E E E E   +E  E Q  E E Q    E E E E E E E E
|-----------------|---------------|-----------------|---------5-------|
|-----------------|---------------|-----------------|-------5---3-5---|
|-----------------|-7--7--7-7-7-3-|-(3)-3-3--3-3-3--|-3-5-6-----------|
|-(3)-3-3--3--3-3-|---------------|-----------------|---------------3-|


  +E  E Q  Q  E E   Q  Q  E E E E   +E  E Q  E E Q    Q  E Q  E E E
|-----------------|---------------|-----------------|---------------|
|-----------------|---------------|-----------------|---------------|
|-----------------|-7--7--7-7-7-3-|-(3)-3-3--3-3-3--|-3--3-3--3-3---|
|-(3)-3-3--3--3-3-|---------------|-----------------|-------------3-|


  E E Q  Q  E E   Q  Q  E E E E   +E  E Q  E E Q    Q  E Q  E E E
|---------------|---------------|-----------------|---------------||
|---------------|---------------|-----------------|---------------||
|---------------|-7--7--7-7-7-3-|-(3)-3-3--3-3-3--|-3--3-3--3-3-3-||
|-3-3-3--3--3-3-|---------------|-----------------|---------------||


 Intro 2
  E E E E E E Q     E  E  Q  Q   Q
|----------------|------------------|
|----------------|------------------|
|----------------|------------------|
|-7---8-8-7-8-8--|-10-10-10--7--10--|
|
| Gtr II
| W                 W
|----------------|------------------|
|----------------|------------------|
|----------------|------------------|
|----------------|------------------|
|----------------|------------------|
|----------------|------------------|


  E E E E E E Q     E  Q  E  Q.      E
|----------------|---------------------------|
|----------------|---------------------------|
|----------------|---------------------------|
|-7---8-8-7-8-8--|-10-10--5s17s======5-------|
|
|                                        ~~~
| W                 H        Q   E  +T   S.
|----------------|---------------------------|
|----------------|----------12--13-(13)-12---|
|----------------|---------------------------|
|----------------|-----------9--10-(10)--9---|
|----------------|---------------------------|
|----------------|---------------------------|


    E  E E E E E Q     E  E  Q  Q   Q    E E E E E E Q     E  E  Q   Q   Q
|-------------------|------------------|----------------|-------------------||
|-------------------|------------------|----------------|-------------------||
|-------------------|------------------|----------------|-------------------||
|---7----8-8-7-8-8--|-10-10-10--7--10--|-7---8-8-7-8-8--|-10-10-10--10--10--||
|
|   ~~~~
|  +W                  W                 W                 W
|-------------------|------------------|----------------|-------------------||
|-(12)--------------|------------------|----------------|-------------------||
|-------------------|------------------|----------------|-------------------||
|--(9)--------------|------------------|----------------|-------------------||
|-------------------|------------------|----------------|-------------------||
|-------------------|------------------|----------------|-------------------||


 Verse 2
  E E E E E E E E   E E H    E E   E E E E E E Q    E E E E E E E E
|-----------------|--------------|----------------|-----------------|
|-----------------|-2---2----2-2-|----------------|-----------------|
|-----------------|--------------|-3---3-3-3-3-3--|-3---3-3-3-3-2-0-|
|-3---3-3-3-3-3-3-|--------------|----------------|-----------------|


  E E E E E E E E   E E Q.   E E E   E E E E E E Q    E E E E E E E E
|-----------------|----------------|----------------|-----------------|
|-----------------|-2---2----------|----------------|-----------------|
|-----------------|----------0-1-2-|-3---3-3-3-3-3--|-3---3-3-3-3-2-0-|
|-3---3-3-3-3-3-3-|----------------|----------------|-----------------|


  E E E E E E E E   E E H    E E   E E E E E E Q    E E E E E E E E
|-----------------|--------------|----------------|-----------0-----|
|-----------------|-2---2----2-2-|----------------|-------------0---|
|-----------------|--------------|-3---3-3-3-3-3--|-3---3-3-3-----0-|
|-3---3-3-3-3-3-3-|--------------|----------------|-----------------|


  E E E E E E E E   E E H    E E   E E E E E E Q    E E E E E E E E
|-----------------|--------------|----------------|-----------------|
|-----------------|-2---2----2-2-|----------------|-----------------|
|-----------------|--------------|-3---3-3-3-3-3--|-3---3-3-3-3-2-0-|
|-3---3-3-3-3-3-3-|--------------|----------------|-----------------|


  W          W          W          H    E E E E
|----------|----------|----------|--------------||
|----------|----------|----------|--------------||
|----------|----------|----------|--------------||
|-8s=======|=3--------|----------|------3-3---3-||


 Chorus
  +E  E Q  Q  E E   Q  Q  E E E E   +E  E Q  E E Q    Q  E Q  E E E
|-----------------|---------------|-----------------|---------------|
|-----------------|---------------|-----------------|---------------|
|-----------------|-7--7--7-7-7-3-|-(3)-3-3--3-3-3--|-3--3-3--3-3---|
|-(3)-3-3--3--3-3-|---------------|-----------------|-------------3-|


  +E  E Q  Q  E E   Q  Q  E E E E   +E  E Q  E E Q    E E E E E E E E
|-----------------|---------------|-----------------|---------5-------|
|-----------------|---------------|-----------------|-------5---3-5---|
|-----------------|-7--7--7-7-7-3-|-(3)-3-3--3-3-3--|-3-5-6-----------|
|-(3)-3-3--3--3-3-|---------------|-----------------|---------------3-|


  +E  E Q  Q  E E   Q  Q  E E E E   +E  E Q  E E Q    Q  E Q  E E E
|-----------------|---------------|-----------------|---------------|
|-----------------|---------------|-----------------|---------------|
|-----------------|-7--7--7-7-7-3-|-(3)-3-3--3-3-3--|-3--3-3--3-3---|
|-(3)-3-3--3--3-3-|---------------|-----------------|-------------3-|


  E E Q  Q  E E   Q  Q  E E E E   +E  E Q  E E Q
|---------------|---------------|-----------------|
|---------------|---------------|-----------------|
|---------------|-7--7--7-7-7-3-|-(3)-3-3--3-3-3--|
|-3-3-3--3--3-3-|---------------|-----------------|


  Q  E Q  E E E   +W           +W
|---------------|------------|--------||
|---------------|------------|--------||
|-3--3-3--3-3-3-|-(3)--------|-(3)----||
|---------------|------------|--------||


 Bridge
  Q  E E Q  E E   E E Q  E E E E   Q  E E Q  E E   E E Q  E E E E
|---------------|----------------|---------------|----------------|
|---------------|----------------|---------------|----------------|
|---------------|----------------|-7--7-7----7-7-|-7-7----7-7-7-7-|
|-3--3-3----3-3-|-3-3----3-3-3-3-|---------------|----------------|


  Q  E E Q  E E   E E Q  E E E E   Q  E E Q  E E   E E Q  E E E E
|---------------|----------------|---------------|----------------|
|---------------|----------------|---------------|----------------|
|-2--2-2----2-2-|-2-2----2-2-2-2-|-5--5-5----5-5-|-5-5----5-5-5-5-|
|---------------|----------------|---------------|----------------|


  Q  E E  Q    E  E   E E Q   E  E  E  E
|-------------------|--------------------|
|-------------------|--------------------|
|-------------------|--------------------|
|-3--3-3-------3--3-|-3-3-----3--3--3--3-|


  Q  E E  Q    E  E   E E Q   E  E  E  E
|-------------------|-----------------------|
|-------------------|-----------------------|
|-7--7-7-------7--7-|-7-7-----7--7--7--7----|
|-------------------|-----------------------|


  Q  E E  Q    E  E   E E Q   E  E  E  E
|-------------------|--------------------|
|-------------------|--------------------|
|-2--2-2-------2--2-|-2-2-----2--2--2--2-|
|-------------------|--------------------|


  Q  E E  Q    E  E   E E Q   E  E  E  E
|-------------------|-----------------------|
|-------------------|-----------------------|
|-5--5-5-------5--5-|-5-5-----5--5--5--5----|
|-------------------|-----------------------|


  E E E E E E E E   E E E E E E E E   E E E E E E E E   E E E E E  Q  E
|-----------------|-----------------|-----------------|-----------------|
|-----------------|-----------------|-----------------|-----------------|
|-----------------|-----------------|-----------------|-----------------|
|-3-3-3-3-3-3-3-3-|-3-3-3-3-7-7-7-7-|-5-5-5-5-5-5-5-5-|-5-5-5-5-5s17s=5-|


  E E E E E E E E   E E E E E E E E   W          +W
|-----------------|-----------------|----------|--------||
|-----------------|-----------------|----------|--------||
|-2-2-2-2-2-2-2-2-|-2-2-2-2-2-2-2-2-|-3--------|-(3)----||
|-----------------|-----------------|----------|--------||


 Interlude     Out-Chorus
  Wx8           E E Q  Q  E E   Q  Q  E E E E
|------------||---------------|---------------|
|------------||---------------|---------------|
|------------||---------------|-7--7--7-7-7-3-|
|------------||-3-3-3--3--3-3-|---------------|


  +E  E Q  E E Q    Q  E Q  E E E
|-----------------|---------------|
|-----------------|---------------|
|-(3)-3-3--3-3-3--|-3--3-3--3-3---|
|-----------------|-------------3-|


  +E  E Q  Q  E E   Q  Q  E E E E   +E  E Q  E E Q    E E E E E E E E
|-----------------|---------------|-----------------|---------5-------|
|-----------------|---------------|-----------------|-------5---3-5---|
|-----------------|-7--7--7-7-7-3-|-(3)-3-3--3-3-3--|-3-5-6-----------|
|-(3)-3-3--3--3-3-|---------------|-----------------|---------------3-|


  +E  E Q  Q  E E   Q  Q  E E E E   +E  E Q  E E Q    Q  E Q  E E E
|-----------------|---------------|-----------------|---------------|
|-----------------|---------------|-----------------|---------------|
|-----------------|-7--7--7-7-7-3-|-(3)-3-3--3-3-3--|-3--3-3--3-3---|
|-(3)-3-3--3--3-3-|---------------|-----------------|-------------3-|


  E E Q  Q  E E   Q  Q  E E E E   +E  E Q  E E Q
|---------------|---------------|-----------------|
|---------------|---------------|-----------------|
|---------------|-7--7--7-7-7-3-|-(3)-3-3--3-3-3--|
|-3-3-3--3--3-3-|---------------|-----------------|


  Q  E Q  E E E   +W           +W
|---------------|------------|--------||
|---------------|------------|--------||
|-3--3-3--3-3-3-|-(3)--------|-(3)----||
|---------------|------------|--------||


 Outro
  E E E E E E Q     E  E  Q  Q   Q
|----------------|------------------|
|----------------|------------------|
|----------------|------------------|
|-7---8-8-7-8-8--|-10-10-10--7--10--|
|
| Gtr II
| W                 W
|----------------|------------------|
|----------------|------------------|
|----------------|------------------|
|----------------|------------------|
|----------------|------------------|
|----------------|------------------|


  E E E E E E Q     E  Q  E  Q.      E
|----------------|---------------------------|
|----------------|---------------------------|
|----------------|---------------------------|
|-7---8-8-7-8-8--|-10-10--5s17s======5-------|
|
|                                        ~~~
| W                 H        Q   E  +T   S.
|----------------|---------------------------|
|----------------|----------12--13-(13)-12---|
|----------------|---------------------------|
|----------------|-----------9--10-(10)--9---|
|----------------|---------------------------|
|----------------|---------------------------|


    E  E E E E E Q     E  E  Q  Q   Q    E E E E E E Q     E  E  Q   Q   E E
|-------------------|------------------|----------------|--------------------*|
|-------------------|------------------|----------------|--------------------*|
|-------------------|------------------|----------------|--------------------*|
|---7----8-8-7-8-8--|-10-10-10--7--10--|-7---8-8-7-8-8--|-10-10-10--10--10-3-*|
|
|   ~~~~
|  +W                  W                 W                 W
|-------------------|------------------|----------------|--------------------*|
|-(12)--------------|------------------|----------------|--------------------*|
|-------------------|------------------|----------------|--------------------*|
|--(9)--------------|------------------|----------------|--------------------*|
|-------------------|------------------|----------------|--------------------*|
|-------------------|------------------|----------------|--------------------*|



Duration Legend
---------------
W - whole; H - half; Q - quarter; E - 8th; S - 16th; T - 32nd; X - 64th; a - acciaccatura
+ - note tied to previous; . - note dotted; .. - note double dotted
Uncapitalized letters represent notes that are staccato (1/2 duration)
Irregular groupings are notated above the duration line
Duration letters will always appear directly above the note/fret number it represents the
duration for.  Duration letters with no fret number below them represent rests.  Multi-
bar rests are notated in the form Wxn, where n is the number of bars to rest for.  Low
melody durations appear below the staff

Tablature Legend
----------------
 h   - hammer-on
 p   - pull-off
 b   - bend
 pb  - pre-bend
 r   - bend release (if no number after the r, then release immediately)
 /\  - slide into or out of (from/to "nowhere")
 s   - legato slide
 S   - shift slide
 - natural harmonic
[n]  - artificial harmonic
n(n) - tapped harmonic
 ~   - vibrato
 tr  - trill
 T   - tap
 TP  - trem. picking
 PM  - palm muting
\n/  - tremolo bar dip; n = amount to dip
 \n  - tremolo bar down
 n/  - tremolo bar up
/n\  - tremolo bar inverted dip
 =   - hold bend; also acts as connecting device for hammers/pulls
 <> - volume swell (louder/softer)
 x   - on rhythm slash represents muted slash
 o   - on rhythm slash represents single note slash

Misc Legend
-----------
 |  - bar
||  - double bar
||o - repeat start
o|| - repeat end
*|  - double bar (ending)
 :  - bar (freetime)
 $  - Segno
 &  - Coda
Tempo markers -  = BPM(8/16=s8/s16), where s8 = swing 8ths, s16 = swing 16ths

comments
We did not receive enough feedback on this tab! Please rate:
print report bad tab
1 2 3 4 5
1 comment total.
0 reply
MusicMan24 wrote on September 22 2009, 11:01 pm

Ok, is this a bass tab or a guitar tab????????!!!!!!!!

I want to post or [tab]
guest
You may want to rate the tab now too:
select rating
Please do not post tabs as comments. Select "correction" instead!